Godsmack - Why Chords & Tabs

 

Why Chords & Tabs

Godsmack Chords & Tabs

Version: 2 Type: Tab 0 ratings
1 star 2 stars 3 stars 4 stars 5 stars
comments

Why Tab

Band- Godsmack
Song- Why

Intro & Verse (part 1)
|-------------------------------------------------------------------|
|-------------------------------------------------------------------|
|-------------------------------------------------------------------|
|---0h2-5/4--44----0h2-5\4--44----0h2-5\4--44----0h2-5\4--44---2~---|
|---0h2-5/4--44----0h2-5\4--44----0h2-5\4--44----0h2-5\4--44---2~---|
|---0h2-5/4--44----0h2-5\4--44----0h2-5\4--44----0h2-5\4--44---2~---|

|-----------------------------------------------------------|
|-----------------------------------------------------------|
|-----------------------------------------------------------|
|---0h2-5\4--44----0h2-5\4--44----0h2-5\4--44----2~---555---|
|---0h2-5\4--44----0h2-5\4--44----0h2-5\4--44----2~---555---|
|---0h2-5\4--44----0h2-5\4--44----0h2-5\4--44----2~---555---|
[ Tab from: http://www.guitartabs.cc/tabs/g/godsmack/why_tab_ver_2.html ]
Chorus (part 1)
|-----------------------------------------------------------|
|-----------------------------------------------------------|
|-------------7-------------7-------------7-------------7---|
|---0--0--0---x---0-00-00---x---0--0--0---x---0-00-00---x---|
|---0--0--0---5---0-00-00---5---0--0--0---5---0-00-00---5---|
|---0--0--0-------0-00-00-------0--0--0-------0-00-00-------|
   ---pm---       ---pm---      ---pm---      ---pm---
Chorus (part 2)
|-----------------------------------------------------------|
|-----------------------------------------------------------|
|------------(7)-----------(7)-----------(7)-----------(7)--|
|---0-00-00-------0-00-00-------0-00-00-------0-00-00-------|
|---0-00-00-------0-00-00-------0-00-00-------0-00-00-------|
|---0-00-00-------0-00-00-------0-00-00-------0-00-00-------|
   ---pm---       ---pm---      ---pm---      ---pm--- 
Outro
|------9~-----9~------9~------9~---|
|------13~----13~-----13~-----13~--|
|----------------------------------|
|-0-0-0---0-0-0---0-0-0---0-0-0----|
|-0-0-0---0-0-0---0-0-0---0-0-0----|
|-0-0-0---0-0-0---0-0-0---0-0-0----|
--PM-- --PM-- --PM-- --PM--

ENJOY!!!!!
Comments