Godsmack - Whatever Chords & Tabs

 

Whatever Chords & Tabs

Godsmack Chords & Tabs

Version: 9 Type: Tab 0 ratings
1 star 2 stars 3 stars 4 stars 5 stars
comments

Whatever Tab

  PM                 PM              PM 
D-------------|    |----|          D-------------|
A----10-10-10-|    |----|          A----10-10-10-|
F----13-13-13-| X7 |----|  Pause   F----13-13-13-| 8x
C-00----------|    |-00-|          C-00----------|
F-00----------|    |-00-|          F-00----------|
C-00----------|    |-00-|          C-00----------|


                                    PM 
D-------|-----------|-------------|-------------|
A-------|-----------|-------------|-------------|
F-0-~~~-|-7-~~~-----|-6-~~~-------|-66----------|
C-0-~~~-|-7-~~~-----|-6-~~~-------|-66----------|
F-0-~~~-|-5-~~~-----|-6-~~~-------|-66----------|
C-0-~~~-|-0-~~~-----|-6-~~~-------|-66----------|

                                    PM  PM 
D-------|-----------|-------------|-------------|
A-------|-----------|-------------|-------------|
F-0-~~~-|-7-~~~-----|-10~~~-------|-55--33------|
C-0-~~~-|-7-~~~-----|-10~~~-------|-55--33------|
F-0-~~~-|-5-~~~-----|-10~~~-------|-55--33------|
C-0-~~~-|-0-~~~-----|-10~~~-------|-55--33------|

                    PM     PM                  PM
D------------|    |----| D-------------|     D--------------|
A------------|    |----| A----10-10-10-|     A----10-10-----|
F-00---6-5-3-| 3X |-00-| F----13-13-13-| 11X F----13-13-653-|
C-00---6-5-3-|    |-00-| C-00----------|     C-00-------653-|
F-00---6-5-3-|    |-00-| F-00----------|     F-00-------653-|
C-00---6-5-3-|    |-00-| C-00----------|     C-00-------653-|
[ Tab from: http://www.guitartabs.cc/tabs/g/godsmack/whatever_tab_ver_9.html ]
 
                                    PM
D-------|-----------|-------------|-------------| |
A-------|-----------|-------------|-------------| |
F-0-~~~-|-7-~~~-----|-6-~~~-------|-66----------| |
C-0-~~~-|-7-~~~-----|-6-~~~-------|-66----------| |
F-0-~~~-|-5-~~~-----|-6-~~~-------|-66----------| |
C-0-~~~-|-0-~~~-----|-6-~~~-------|-66----------| | 
                                                  |x2
                                   PM  PM         |
D-------|----------|-------------|-------------|  |
A-------|----------|-------------|-------------|  | 
F-0-~~~-|-7-~~~----|-10~~~-------|-55--33------|  | 
C-0-~~~-|-7-~~~----|-10~~~-------|-55--33------|  | 
F-0-~~~-|-5-~~~----|-10~~~-------|-55--33------|  | 
C-0-~~~-|-0-~~~----|-10~~~-------|-55--33------|  | 



                               
D------------|    |----------| |------------|    |-------------|
A------------|    |----------| |------7-6-4-|    |--4-4-4-4----|
F-00---6-5-3-| 3X |-03-3-3-3-| |-00---6-5-3-| 3X |-03-3-3-3----|
C-00---6-5-3-|    |-03-3-3-3-| |-00---6-5-3-|    |-03-3-3-3----|
F-00---6-5-3-|    |-03-3-3-3-| |-00---6-5-3-|    |-03-3-3-3----|
C-00---6-5-3-|    |-03-3-3-3-| |-00---6-5-3-|    |-03-3-3-3----|


Drum/Bass/Vocal Section

  PM PM
D-------------|
A-------------|
F-3--00-------| Second half of Drum/Bass/Vocal Section
C-3--00-------|
F-3--00-------|
C-3--00-------|


D------------|    |----------| |------------|    |-------------|
A------------|    |----------| |------7-6-4-|    |--4-4-4-4----|
F-00---6-5-3-| 3X |-03-3-3-3-| |-00---6-5-3-| 3X |-03-3-3-3----|
C-00---6-5-3-|    |-03-3-3-3-| |-00---6-5-3-|    |-03-3-3-3----|
F-00---6-5-3-|    |-03-3-3-3-| |-00---6-5-3-|    |-03-3-3-3----|
C-00---6-5-3-|    |-03-3-3-3-| |-00---6-5-3-|    |-03-3-3-3----|


  PM                 PM
D-------------|    |-----|
A----10-10-10-|    |-----|
F----13-13-13-| 7X |-----|
C-00----------|    |-00--|
F-00----------|    |-00--|
C-00----------|    |-00--|
Comments