Godsmack - Whatever Chords & Tabs

 

Whatever Chords & Tabs

Godsmack Chords & Tabs

Version: 7 Type: Tab 0 ratings
1 star 2 stars 3 stars 4 stars 5 stars
comments

Whatever Tab

-----------------------------------------------------------------
Whatever - Godsmack
-----------------------------------------------------------------
Tabbed by: godsmackthatkid

Tuning: drop D down 1 whole step

            |--verse--------------------|
                         repeat 7 times  
e|----------|-----------10---10---10----|-----------|
B|----------|*----------13---13---13---*|-----------|
G|----------|---------------------------|-----------|
D|--5*------|---------------------------|-----------|
A|--5*------|*--0---0------------------*|--0---0----|
E|--5*------|---0---0-------------------|--0---0----|
 * fade in

play verse 8 times

[ Tab from: http://www.guitartabs.cc/tabs/g/godsmack/whatever_tab_ver_7.html ]
pre chorus
e|------------------------------------------------------------|
B|------------------------------------------------------------|
G|-------7--------------------------7-----5-------------------|
D|-0-----7-----6--------------0-----7-----5-----5--5-----3-3-|
A|-0-----5-----6-----6--6-----0-----5-----3-----5--5-----3-3-|
E|-0-----------6-----6--6-----0-----------------5-5-----3-3-|

chorus

e|---------------------------------------------------------------------------|
B|---------------------------------------------------------------------------|
G|---------------------------------------------------------------------------|
D|-0--0----6----5----3----0--0----6----5----3----0--0----6----5----3----0-0-|
A|-0--0----6----5----3----0--0----6----5----3----0--0----6----5----3----0-0-|
E|-0--0----6----5----3----0--0----6----5----3----0--0----6----5----3----0-0-|

play verse 7 times
Comments