Godsmack - Whatever Chords & Tabs

 

Whatever Chords & Tabs

Godsmack Chords & Tabs

Version: 4 Type: Tab 0 ratings
1 star 2 stars 3 stars 4 stars 5 stars
comments

Whatever Tab

GODSMACK
"What Ever"
Tabbed by: Brad Voris
Shuriken_ninja@yahoo.com
Drop two steps

 p.m.        p.m.        p.m.
------------------------|----|
------1-1-1-------1-1-1-|----|
------4-4-4-------4-4-4-|----|
------3-3-3-------3-3-3-|----|
-00-----------00--------|-00-|
-00-----------00--------|-00-|
 play 7 x

 p.m.        p.m.   
------------------------|
-----1-1-1--------1-1-1-|
-----4-4-4--------4-4-4-|
-----3-3-3--------3-3-3-|
-00----------00---------|
-00----------00---------|              
 play 8 x
[ Tab from: http://www.guitartabs.cc/tabs/g/godsmack/whatever_tab_ver_4.html ]
l.r....    l.r......  l.r....  l.r....  p.m.
--------------------|-----------------|-------|
--------------------|-----------------|-------|
--------------------|-----------------|-------|
--------------------|-----------------|-------|
-0----------6-------|-0--------5------|-00----|
-0----------6-------|-0--------5------|-00----|

l.r....    l.r......  l.r....  l.r....
--------------------|-----------------|
--------------------|-----------------|
--------------------|-----------------|
--------------------|-----------------|
-0----------6-------|-0--------5------|
-0----------6-------|-0--------5------|

p.m............
---------------|
---------------|
---------------|
---------------|
-00--6-5-4-3-0-|
-00--6-5-4-3-0-|

Comments