Godsmack - Whatever Chords & Tabs

 

Whatever Chords & Tabs

Godsmack Chords & Tabs

Version: 3 Type: Tab 0 ratings
1 star 2 stars 3 stars 4 stars 5 stars
comments

Whatever Tab

T1: James Lees, Jaymz78@hotmail.com, Godsmack, Whatever 

 S1: Song:Whatever 
 By:Godsmack 
 Transcribed by:Jaymz Lees 
 Tuned To Drop D 


 Main Riff\Verse 
 e|----------------------|---------------------- 
 b|----------8^--8^---8^-|----------8^--8^---8^- 
 g|---------11^-11^--11^-|---------11^-11^--11^- 
 D|----------------------|---------------------- 
 A|--0--0----------------|--0--0---------------- 
 D|--0--0----------------|--0--0---------------- 
 And I wonder... 

 between chorus and verse 
 e|----------------------|---------------|------------------------------------------|

 b|----------------------|---------------|------------------------------------------|
[ Tab from: http://www.guitartabs.cc/tabs/g/godsmack/whatever_tab_ver_3.html ]
 g|----------------------|---------------|------------------------------------------|

 D|----------------------|---------------|------------------------------------------|

 A|--2---------8---7-6---|--2--2---------|--2-----------8---7--6----2--2------2--2--|

 D|--2---------8---7-6---|--2--2---------|--2-----------8---7--6----2--2------2--2--|

 P.M.. ............... 

 Chorus 
 e|------------------------------------------------------------|| 
 a|------------------------------------------------------------|| 
 g|------------------------------------------------------------|| 
 D|------------------------------------------------------------|| 
 A|---2-------8------6-------4------2-------8-------6------4---|| 
 D|---2-------8------6-------4------2-------8-------6------4---|| 
 I'm doin the best i ever did Im doin the best that i can 
Comments