Godsmack - Whatever Chords & Tabs

 

Whatever Chords & Tabs

Godsmack Chords & Tabs

Version: 4 Type: Bass Tab 0 ratings
1 star 2 stars 3 stars 4 stars 5 stars
comments

Whatever Bass Tab

   
tuned: C,A,D,G

The other tabbs for this song are pretty lame so i tabbed the correct version

G----------------------------------------|
D----------------------------------------|
A----------------------------------------|
C-00-0000-00-0000-00-0000-00-0000--------|
Verse

G----------------------------------------|
D---3------------3--1--------------------|
A-----2----------------1-----------------|
C-0------33---0------------3-------------|
Pre Chorus
[ Tab from: http://www.guitartabs.cc/tabs/g/godsmack/whatever_btab_ver_4.html ]
This part is played once in the beginning and twice in the second half of
the song.

G------------------------------------------------|
D------------------------------------------------|
A-------2222--11------2222-11------2222-11-------|
C--000------------000----------000----------0000-|
Chorus


G----------------------------------------------------------|
D----------------------------------------------------------|
A----------------------2222-11-----2222-11-----2222-11-----|
C--00-0000-00-0000-00----------000---------000---------00--|
Final Verse
Comments