Godsmack - Voodoo Too Chords & Tabs

 

Voodoo Too Chords & Tabs

Godsmack Chords & Tabs

Version: 1 Type: Tab

Voodoo Too Tab

Band- Godsmack
Song- Voodoo Too
Album- IV (2006)
Tuning- DADGBE

Intro/Guitar 1 w/ wah & clean- Comes in after a piece from the original Voodoo.
|--------------------13-13-13-12-12-12-----------|
|-----------3~-------------------------13-13-13~-|
|------------------------------------------------|
|-0~-------------0~------------------------------|
|------------------------------------------------|
|------------------------------------------------|

|--------10----10~--------------------|
|-6h8/10----10----------8-------------|
|-------------------7-9---10^--7p5h7~-|
|-------------------------------------|
|-------------------------------------|
|-------------------------------------|

Intro/Guitar 2 w/ clean- Played very quietly in the background.
|----------------------------------|
|------------------------------3---|
|----------------------------2---2-|
|-0~-------------------------------|
|----------------------------------|
|----------------------------------|

Verse/Both Guitars w/ very light distortion
|---------------------0-----------|
|--------3~---------3---3---------|
|------2----------2-------2-------|
|----0----------0-----------------| Repeat a few times
|-----------------------------3-3-|
|-0----------0--------------0-3-3-|
[ Tab from: http://www.guitartabs.cc/tabs/g/godsmack/voodoo_too_tab.html ]
|-------------1---------------------------0---------------|
|-------1-------1-------------------0-------0-------------|
|---3-----3-------3-------3-----2-----2-------2-----------|
|-----3-----3-------3---3---3-----2-----2-----------------|
|-1-------------------1-------0-------------------3-3-3-3-|
|-----------------------------------------------0-3-3-3-3-|

Chorus/Both Guitars w/ Heavy Distortion
|-----------------------------------------------------|
|-----------------------------------------------------|
|-----------------------------------------------------|
|-----------------------------------------------------|
|--------------5----------------5---------5-----------|
|-0--2-3-2-0-2----0-2-3-2-0-2-3---3-5-3-2---2-2-3-2-0-|

Chorus Ending
|----|
|----|
|----|
|-0~-|
|-0~-|
|-0~-|

Fill/Guitar 1 w/ light distortion and wah
|----------------------------------------------------12*-|
|----3~----12-15-12-15----10----10---------------12*-----|
|----------------------12----12----10-12~-10-------------|
|-0~----0~-----------------------------------12~---------|
|--------------------------------------------------------|
|--------------------------------------------------------|

Play Verse

Play Chorus

Solo- Don't know yet.

Solo Backing

Note: For the beginning of the solo, play the verse for backing and listen to when it 
in. Then play this:
|-------------------------------|
|-------------------------------|
|-------------------------------|
|-------------------------------| Repeat a few times and then go into chorus.
|--------------5----------------|
|-0--2-3-2-0-2----0-2-3-2-0-2-3-|

Backing Ending
|----------|
|----------|
|----------|
|-------0~-|
|-3-3-3-0~-|
|-3-3-3-0~-|

End with verse.

ENJOY!