Godsmack - Voodoo Chords & Tabs

 

Voodoo Chords & Tabs

Godsmack Chords & Tabs

Version: 4 Type: Tab 0 ratings
1 star 2 stars 3 stars 4 stars 5 stars
comments

Voodoo Tab

   
Band- Godsmack
Song- Voodoo
Album- Godsmack

tr I (D A D G B E) - 'Les Paul'

   Intro
                                    1.             2.
   4/4                                             5/4
    Gtr I
    W          W          W          W              W
||-----------|----------|----------|-------------||------|
||o----------|----------|----------|------------o||------|
||-----------|----------|----------|-------------||------|
||-----------|----------|----------|-------------||------|
||o----------|----------|----------|------------o||------|
||-----------|----------|----------|-------------||------|


                           $
 4/4
  Wx7          H    Q  E E     E E E E H
|------------|-------------||---------------|
|------------|-------------||o--------------|
|------------|-----------5-||--5s6s5--------|
|------------|-----------3-||--3s4s3--------|
|------------|-------------||o--------------|
|------------|-------------||---------------|


  H    Q  E E   E E E E H      H    Q  E E
|-------------|--------------|-----------------||
|-------------|--------------|----------------o||
|-----------5-|-5s6s5--------|-----------5-----||
|-----------3-|-3s4s3--------|-----------3-----||
|-------------|--------------|----------------o||
|-------------|--------------|-----------------||


   Verse
    E E E E H      H    Q  E E   E E E E H      H    Q  E E  3x
||---------------|-------------|--------------|--------------||
||o--------------|-------------|--------------|-------------o||
||--5s6s5--------|-----------5-|-5s6s5--------|-----------5--||
||--3s4s3--------|-----------3-|-3s4s3--------|-----------3--||
||o--------------|-------------|--------------|-------------o||
||---------------|-------------|--------------|--------------||


                            PM--------|
  E E E E H   W          Q  E E E E E E   E E Q  H
|-----------|----------|----------------|----------||
|-----------|----------|----------------|----------||
|-5s6s5-----|----------|----------------|----------||
|-3s4s3-----|----------|-2--2-2-2-2-2-2-|-2--------||
|-----------|----------|-2--2-2-2-2-2-2-|-2--------||
|-----------|----------|-2--2-2-2-2-2-2-|-2--------||


 Chorus
  $$
  Q  Q  E Q  E   +E  Q  E Q  E E   Q  E E +E  Q  E   +E  Q  E E E Q
|--------------|-----------------|-----------------|----------------|
|--------------|-----------------|-----------------|----------------|
|--------------|-----------------|-----------------|----------------|
|-3--3--3-3--1-|-(1)-1--3-3--3-1-|-3--3-3-(3)-3--6-|-(6)-6--5-5s6S5-|
|-3--3--3-3--1-|-(1)-1--3-3--3-1-|-3--3-3-(3)-3--6-|-(6)-6--5-5s6S5-|
|-3--3--3-3--1-|-(1)-1--3-3--3-1-|-3--3-3-(3)-3--6-|-(6)-6--5-5s6S5-|


                            To Coda                      D.S. al Coda
                            To Coda
  E E E E E Q  E   +E  Q  E Q  E E   Q  E E +E  Q  E   +E  E Q  Q.   E
|----------------|-----------------|-----------------|------------------||
|----------------|-----------------|-----------------|------------------||
|----------------|-----------------|-----------------|------------------||
|-1s3-3-3-3-3--1-|-(1)-1--3-3--3-1-|-3--3-3-(3)-3--1-|-(1)s3-3--3-------||
|-1s3-3-3-3-3--1-|-(1)-1--3-3--3-1-|-3--3-3-(3)-3--1-|-(1)s3-3--3-------||
|-1s3-3-3-3-3--1-|-(1)-1--3-3--3-1-|-3--3-3-(3)-3--1-|-(1)s3-3--3-------||


  &
  E E E E E Q  E   +E  E E E E E E E   E E E E E Q  E   +E  Q  E Q  E E
|----------------|-------------------|----------------|------------------|
|----------------|-------------------|----------------|------------------|
|----------------|-------------------|----------------|------------------|
|-1s3-3-3-3-3--6-|-(6)-6-6s5-5s6s5s1-|-1s3-3-3-3-3--1-|-(1)-1--3-3--3-1--|
|-1s3-3-3-3-3--6-|-(6)-6-6s5-5s6s5s1-|-1s3-3-3-3-3--1-|-(1)-1--3-3--3-1--|
|-1s3-3-3-3-3--6-|-(6)-6-6s5-5s6s5s1-|-1s3-3-3-3-3--1-|-(1)-1--3-3--3-1--|


  E E E E E Q  E   +E  Q  E E E Q     E E E E E Q  E   +E  Q  E Q  E E
|----------------|------------------|----------------|------------------|
|----------------|------------------|----------------|------------------|
|----------------|------------------|----------------|------------------|
|-1s3-3-3-3-3--6-|-(6)-6--5-5s6-5\--|-1s3-3-3-3-3--1-|-(1)-1--3-3--3-1--|
|-1s3-3-3-3-3--6-|-(6)-6--5-5s6-5\--|-1s3-3-3-3-3--1-|-(1)-1--3-3--3-1--|
|-1s3-3-3-3-3--6-|-(6)-6--5-5s6-5\--|-1s3-3-3-3-3--1-|-(1)-1--3-3--3-1--|

[ Tab from: http://www.guitartabs.cc/tabs/g/godsmack/voodoo_tab_ver_4.html ]
                                       Interlude
  E E E E +E  E E E   E E Q  E Q  E     E E E E H
|-------------------|---------------||---------------|
|-------------------|---------------||o--------------|
|-------------------|-------------5-||--5s6s5--------|
|-1s3-3-3-(3)-3s1-1-|-1s3-3--3-3--3-||--3s4s3--------|
|-1s3-3-3-(3)-3s1-1-|-1s3-3--3-3----||o--------------|
|-1s3-3-3-(3)-3s1-1-|-1s3-3--3-3----||---------------|


                              1.              2.
  H    Q  E E   E E E E H      H    Q  E E     W
|-------------|--------------|--------------||------|
|-------------|--------------|-------------o||------|
|-----------5-|-5s6s5--------|-----------5--||------|
|-----------3-|-3s4s3--------|-----------3--||------|
|-------------|--------------|-------------o||------|
|-------------|--------------|--------------||------|


    Q  Q  E E E E   +E  Q  E E E E E   E E E E H      W
||----------------|------------------|--------------|-------||
||o-4--4--4-4-4-4-|-(4)-4--4-4-4-4---|--------------|------o||
||--3--3--3-3-3-3-|-(3)-3--3-3-3-3-5-|-5s6s5--------|-------||
||--1--1--1-1-1-1-|-(1)-1--1-1-1-1-3-|-3s4s3--------|-------||
||o-1--1--1-1-1-1-|-(1)-1--1-1-1-1---|--------------|------o||
||--1--1--1-1-1-1-|-(1)-1--1-1-1-1---|--------------|-------||


           D.S.S. al Dbl. Coda      &&
  Q  Q  E E E E   E. S  Q  H        E E E E E Q  E   +E  E E E E E E E
|---------------|----------------||----------------|---------------------|
|-4--4--4-4-4-4-|----------------||----------------|---------------------|
|-3--3--3-3-3-3-|-9--9--9--9\----||----------------|---------------------|
|-1--1--1-1-1-1-|-9--9--9--9\----||-1s3-3-3-3-3--6-|-(6)-6-6s5-5s6-5s1---|
|-1--1--1-1-1-1-|-9--9--9--9\----||-1s3-3-3-3-3--6-|-(6)-6-6s5-5s6-5s1---|
|-1--1--1-1-1-1-|-9--9--9--9\----||-1s3-3-3-3-3--6-|-(6)-6-6s5-5s6-5s1---|


  E E E E E E  E E   +E  Q  E Q  E E   E E E E E Q  E   +E  E E E E E E E
|------------------|-----------------|----------------|---------------------|
|------------------|-----------------|----------------|---------------------|
|------------------|-----------------|----------------|---------------------|
|-1s3-3-3-3-3--3-1-|-(1)-1--3-3--3-3-|-1s3-3-3-3-3--6-|-(6)-6-6s5-5s6-5s1---|
|-1s3-3-3-3-3--3-1-|-(1)-1--3-3--3-3-|-1s3-3-3-3-3--6-|-(6)-6-6s5-5s6-5s1---|
|-1s3-3-3-3-3--3-1-|-(1)-1--3-3--3-3-|-1s3-3-3-3-3--6-|-(6)-6-6s5-5s6-5s1---|


  E E E E E Q  E   +E  Q  E Q  E E   E E E E +E  E E E   +E  E Q  Q.   E
|----------------|-----------------|-------------------|------------------|
|----------------|-----------------|-------------------|------------------|
|----------------|-----------------|-------------------|------------------|
|-1s3-3-3-3-3--1-|-(1)-1--3-3--3-3-|-1s3-3-3-(3)-3s1-1-|-(1)s3-3--3-------|
|-1s3-3-3-3-3--1-|-(1)-1--3-3--3-3-|-1s3-3-3-(3)-3s1-1-|-(1)s3-3--3-------|
|-1s3-3-3-3-3--1-|-(1)-1--3-3--3-3-|-1s3-3-3-(3)-3s1-1-|-(1)s3-3--3-------|


   Outro
                                1.,2.,3.
    E E E E H      H    Q  E E   E E E E H
||---------------|-------------|--------------|
||o--------------|-------------|--------------|
||--5s6s5--------|-----------5-|-5s6s5--------|
||--3s4s3--------|-----------3-|-3s4s3--------|
||o--------------|-------------|--------------|
||---------------|-------------|--------------|


                 4.
  H    Q  E E     E E E E H      W
|--------------||--------------|------*|
|-------------o||--------------|------*|
|-----------5--||-5s6s5--------|------*|
|-----------3--||-3s4s3--------|------*|
|-------------o||--------------|------*|
|--------------||--------------|------*|


Duration Legend
---------------
W - whole; H - half; Q - quarter; E - 8th; S - 16th; T - 32nd; X - 64th; a - acciaccatura
+ - note tied to previous; . - note dotted; .. - note double dotted
Uncapitalized letters represent notes that are staccato (1/2 duration)
Irregular groupings are notated above the duration line
Duration letters will always appear directly above the note/fret number it represents the
duration for.  Duration letters with no fret number below them represent rests.  Multi-
bar rests are notated in the form Wxn, where n is the number of bars to rest for.  Low
melody durations appear below the staff

Tablature Legend
----------------
 h   - hammer-on
 p   - pull-off
 b   - bend
 pb  - pre-bend
 r   - bend release (if no number after the r, then release immediately)
 /\  - slide into or out of (from/to "nowhere")
 s   - legato slide
 S   - shift slide
  - natural harmonic
[n]  - artificial harmonic
n(n) - tapped harmonic
 ~   - vibrato
 tr  - trill
 T   - tap
 TP  - trem. picking
 PM  - palm muting
\n/  - tremolo bar dip; n = amount to dip
 \n  - tremolo bar down
 n/  - tremolo bar up
/n\  - tremolo bar inverted dip
 =   - hold bend; also acts as connecting device for hammers/pulls
 <>  - volume swell (louder/softer)
 x   - on rhythm slash represents muted slash
 o   - on rhythm slash represents single note slash

Misc Legend
-----------
 |  - bar
||  - double bar
||o - repeat start
o|| - repeat end
*|  - double bar (ending)
 :  - bar (freetime)
 $  - Segno
 &  - Coda
Tempo markers -  = BPM(8/16=s8/s16), where s8 = swing 8ths, s16 = swing 16ths
Comments