Godsmack - Voodoo Chords & Tabs

 

Voodoo Chords & Tabs

Godsmack Chords & Tabs

Version: 3 Type: Tab 0 ratings
1 star 2 stars 3 stars 4 stars 5 stars
comments

Voodoo Tab

   
Tabbed By: Rob S. (Rob3455@Hotmail.com)
Date: Feb 29th 2004
* - palm-mute
H - hammer on
P - pull off
~ - vibrato
N.H. - Natural Harmonic
A.H. - Artificial Harmonic
/ - slide up
\ - slide down
^ - Half Bend
F - Full Bend

Tune down one step to D,G,C,F,A,D

INTRO
D|---------|
A|--7/8\7--|
F|--6/7\6--|
C|--4/5\4--|
D|---------|
G|---------|

D|-------------------|
A|-------------------|
F|-------------------|
C|--2-2-2-2-2-2-2-2--|
G|--2-2-2-2-2-2-2-2--|
D|--0-0-0-0-0-0-0-0--|
      * * * * * *
[ Tab from: http://www.guitartabs.cc/tabs/g/godsmack/voodoo_tab_ver_3.html ]
Chorus
D|---------------|------------|---------------|-------------------|
A|-7-7-7-7-7-7-5-|--5-7-7-7-7-|-5/7-7-7-7-7-7-|--10-10-9-9/10-9\--|
F|-6-6-6-6-6-6-4-|--4-6-6-6-6-|-4/6-6-6-6-6-6-|---9--9-8-8/9-8\--|
C|-4-4-4-4-4-4-2-|--2-4-4-4-4-|-2/4-4-4-4-4-4-|---7--7-6-6/7-6\--|
G|---------------|------------|---------------|-------------------|
D|---------------|------------|---------------|-------------------|
I'm not the one who's so far away...
D|-----------------|---------------|---------------|----------|
A|-5/7-7-7-7-7-7-5-|--5--7--7--7-7-|-5/7-7-7-7\5-5-|-/7-7---7-|
F|-4/6-6-6-6-6-6-4-|--4--6--6--6-6-|-4/6-6-6-6\4-4-|-/6-6---6-|
C|-2/4-4-4-4-4-4-2-|--2--4--4--4-4-|-2/4-4-44\2-2-|-/4-4---4-|
G|-----------------|---------------|---------------|----------|
D|-----------------|---------------|---------------|----------|
                               ...And I don't remember why I came
D|---------------|-----------------|-----------------|---------------|
A|-5/7-7-7--7-10-|-1010\9-9/10\9\5-|-5/7-7-7-7-7-7-5-|--5--7--7--7-7-|
F|-4/6-6-6--6--9-|--9-9\8-8/ 9\8\4-|-4/6-6-6-6-6-6-4-|--4--6--6--6-6-|
C|-2/4-4-4--4--7-|--7-7\6-6/ 7\6\2-|-2/4-4-4-4-4-4-2-|--2--4--4--4-4-|
G|---------------|-----------------|-----------------|---------------|
D|---------------|-----------------|-----------------|---------------|
...don't remember why I came         I'm not the one who's so far away...

D|-----------------|---------------|-----------------|---------------|
A|-5/7-7-7-7-7-710-|-10--9-9/10-9\-|-5/7-7-7-7-7-7-5-|--5--7--7--7-7-|
F|-4/6-6-6-6-6-6-9-|--9--8-8/9-8\-|-4/6-6-6-6-6-6-4-|--4--6--6--6-6-|
C|-2/4-4-4-4-4-4-7-|--7--6-6/7-6\-|-2/4-4-4-4-4-4-2-|--2--4--4--4-4-|
G|-----------------|---------------|-----------------|---------------|
D|-----------------|---------------|-----------------|---------------|
...feel the snake bite enter my veins...
D|-------------|---------------|
A|-5/7-7-7-7\5-|-5/7-7-7-7-7-7-|
F|-4/6-6-6-6\4-|-4/6-6-6-6-6-6-|
C|-2/4-4-44\2-|-2/4-4-4-4-4-4-|
G|-------------|---------------|
D|-------------|---------------|
...don't remember why I came

Interlude
D|-------|
A|-7/8\7-|
F|-6/7\6-|  Play a couple times
C|-4/5\4-|
G|-------|
D|-------|

D|---------(Play 2 times)----------| |---------------|-----------|
A|---------------|-----------7/8\7-| |---------------|-----------|
F|---------------|-----------6/7\6-| |---------------|-9---9-9---|
C|-2--2--2-2-2-2-|--2-2------4/5\4-| |-2-2-2-2-2-2-2-|-9---9-9---|
G|-2--2--2-2-2-2-|--2-2------------| |-2-2-2-2-2-2-2-|-7---7-7---|
D|-0--0--0-0-0-0-|--0-0------------| |-0-0-0-0-0-0-0-|-7---7-7---|

Outro
D|---------|
A|--7/8\7--|
F|--6/7\6--|
C|--4/5\4--|
G|---------|
D|---------|

I hope this is right so play on all you Godsmack fans!
Comments