Godsmack - Voodoo Chords & Tabs

 

Voodoo Chords & Tabs

Godsmack Chords & Tabs

Version: 1 Type: Tab 0 ratings
1 star 2 stars 3 stars 4 stars 5 stars
comments

Voodoo Tab

   
Band: Godsmack 
Song: Voodoo 
Tabed By: Jeff H (poo_poo_punk@hotmail.com)

I relized there was no tab for this song so i tabed it enjoy

Tuned down one step to D.

  Low to high: D G C F A D

Use one of the pickups more towards the neck of the guitar.

Riff 1: 
D------2-2/3-2--------------
A------2-2/3-2--------------
F---------------------------
C---------------------------
G---------------------------
D---------------------------


Riff 2:
D---------------------------
A---------------------------
F---------------------------
C--2---2-2-2-2-2-2-2--------
G--2---2-2-2-2-2-2-2--------
D--0---0-0-0-0-0-0-0--------
       P.M...(Gradually release)


Chorus Riff:                                         
D------------------------------------------------------------------
A------------------------------------------------------------------
F------------------------------------------------------------------
C--4---4-4-4-4---2---2---4-4---4-4-4---4-4-4-4---7---7---7-6/7-6\5-
G--4---4-4-4-4---2---2---4-4---4-4-4---4-4-4-4---7---7---7-6/7-6\5-
D--2---2-2-2-2---0---0---2-2---2-2-2---2-2-2-2---5---5---5-4/5-4\3-
  I'm not the . . . 
                                                 _________________
              Omit this stuff the first time -->| 
   ---------------------------------------------------------------
   ---------------------------------------------------------------
   ---------------------------------------------------------------
   4-4-4-4-4-4---2---2---4-4---4-4-4---4-4---4---7---7-7\6-6/7-6\5
   4-4-4-4-4-4---2---2---4-4---4-4-4---4-4---4---7---7-7\6-6/7-6\5
   2-2-2-2-2-2---0---0---2-2---2-2-2---2-2---2---5---5-5\4-4/5-4\3
   _____________________________________________________________

   -------------------------------------------------------------------
   -------------------------------------------------------------------
   -------------------------------------------------------------------
   -4---4-4-4-4---2---2---4-4---4-4-4---4-4-4-4---7---7---7---6/7-6\5-
   -4---4-4-4-4---2---2---4-4---4-4-4---4-4-4-4---7---7---7---6/7-6\5-
   -2---2-2-2-2---0---0---2-2---2-2-2---2-2-2-2---5---5---5---4/5-4\3-
   ___________________________________________
                                              |
   ---------------------------------------------------------------
   ---------------------------------------------------------------
   ---------------------------------------------------------------
   4-4-4-4-4-4---2---2---4-4---4-4-4---4-4---4---2---4-4----------
   4-4-4-4-4-4---2---2---4-4---4-4-4---4-4---4---2---4-4----------
   2-2-2-2-2-2---0---0---2-2---2-2-2---2-2---2---0---2-2----------

Bridge Riff:
D--------------------------------2-2/3-2--
A--------------------------------2-2/3-2--
F-----------------------------------------
C--2---2-2-2-2-2-2-2-2-2-2-2-2-2----------
G--2---2-2-2-2-2-2-2-2-2-2-2-2-2---------- (Last time just keep playing
D--0---0-0-0-0-0-0-0-0-0-0-0-0-0----------  D5 until the chorus)
       P.M...(Gradually release)


Drop-D Tuning
[ Tab from: http://www.guitartabs.cc/tabs/g/godsmack/voodoo_tab.html ]
   Low to High: D A D G B E

Use the same pickup

Riff 1: 
E---------------------------
B---------5-5/6-5-----------
G---------4-4/5-4-----------
D---------------------------
A---------------------------
D---------------------------


Riff 2:
E---------------------------
B---------------------------
G---------------------------
D--0---0-0-0-0-0-0-0--------
A--0---0-0-0-0-0-0-0--------
D--0---0-0-0-0-0-0-0--------
       P.M...(Gradually release)


Chorus Riff:                                         
E------------------------------------------------------------------
B------------------------------------------------------------------
G------------------------------------------------------------------
D--2---2-2-2-2---0---0---2-2---2-2-2---2-2-2-2---5---5---5-4/5-4\3-
A--2---2-2-2-2---0---0---2-2---2-2-2---2-2-2-2---5---5---5-4/5-4\3-
D--2---2-2-2-2---0---0---2-2---2-2-2---2-2-2-2---5---5---5-4/5-4\3-
  I'm not the . . .
                                                 _________________
              Omit this stuff the first time -->| 
   ---------------------------------------------------------------
   ---------------------------------------------------------------
   ---------------------------------------------------------------
   2-2-2-2-2-2---0---0---2-2---2-2-2---2-2---2---5---5-5\4-4/5-4\3
   2-2-2-2-2-2---0---0---2-2---2-2-2---2-2---2---5---5-5\4-4/5-4\3
   2-2-2-2-2-2---0---0---2-2---2-2-2---2-2---2---5---5-5\4-4/5-4\3
   ___________________________________________________________________

   -------------------------------------------------------------------
   -------------------------------------------------------------------
   -------------------------------------------------------------------
   -2---2-2-2-2---0---0---2-2---2-2-2---2-2-2-2---5---5---5---4/5-4\3-
   -2---2-2-2-2---0---0---2-2---2-2-2---2-2-2-2---5---5---5---4/5-4\3-
   -2---2-2-2-2---0---0---2-2---2-2-2---2-2-2-2---5---5---5---4/5-4\3-
   _____________________________________________
                                                |
   ---------------------------------------------------------------
   ---------------------------------------------------------------
   ---------------------------------------------------------------
   2-2-2-2-2-2---0---0---2-2---2-2-2---2-2---2---0---2-2----------
   2-2-2-2-2-2---0---0---2-2---2-2-2---2-2---2---0---2-2----------
   2-2-2-2-2-2---0---0---2-2---2-2-2---2-2---2---0---2-2----------

Bridge Riff:
E-----------------------------------------
B--------------------------------5-5/6-5--
G--------------------------------4-4/5-4--
D--0---0-0-0-0-0-0-0-0-0-0-0-0-0----------
A--0---0-0-0-0-0-0-0-0-0-0-0-0-0---------- (Last time just keep playing
D--0---0-0-0-0-0-0-0-0-0-0-0-0-0----------  D5 until the chorus)
       P.M...(Gradually release)


Here's how the song goes:

Intro (Bass, Vocals, and Drums)
Riff 1 a bunch of times
Riff 2 once
Chorus Riff without that stuff
Riff 1 another bunch
Riff 2 once
Chorus Riff with that stuff
Riff 1 4 times
Bridge Riff 3 times
Chorus Riff with that stuff
Riff 1 one last bunch
Comments