Godsmack - Voodoo Chords & Tabs

 

Voodoo Chords & Tabs

Godsmack Chords & Tabs

Version: 6 Type: Bass Tab 0 ratings
1 star 2 stars 3 stars 4 stars 5 stars
comments

Voodoo Bass Tab

   
tunning: low to high, D# G# C# G

sad to say none of the three original tabs are right so i posted my own

G  ----------------------------------------------|
C#--------------4-5------------------------------|
G#-------------------4-4-------4-----------------|
D#---2-3-2-2------------3-3----------------------|

repeat this for the whole verse up until the chorus starts

G  -------------------------------------------/----------------------------|
C#---------------4--2----------------2----/-----------------2--------------|
G#----2--2--4--------4-------2--4------/-------2---2--4--------------------|
D#--2--2-----------------2-2------------/-----2---2-----------55-44-5-4-0--|

first chorus
[ Tab from: http://www.guitartabs.cc/tabs/g/godsmack/voodoo_btab_ver_6.html ]
G  ---------------------------------------/----------------------------|
C#--------------4--2--------------2---/-----------------------2--------|
G#---2--2--4--------4-----2--4-----/--------2-----2--4-----------------|
D#-2--2----------------2-2----------/------2----2--------------0--2-2--|

second chorus
after this it go's back to the verse and then to a faded "hell yeah" lyric
which is played like this

G  ------------------------------------------------------------------------|
C#-------------------4-5---------------------------------------------------|
G#-------------------------4-4-----------4---------------------------------|
D#----2-3-2-2--------------------3-3------0-0-0-0-0-0-0-0-0-0-0-0-0-0-0-0--|

after this thats pretty much it
the rest of the song is self explanitory
Comments