Godsmack - Voodoo Chords & Tabs

 

Voodoo Chords & Tabs

Godsmack Chords & Tabs

Version: 2 Type: Bass Tab 1 rating
1 star 2 stars 3 stars 4 stars 5 stars
comments

Voodoo Bass Tab

band: Godsmack
Song: Voodoo
Album: Self-titled
Tabbed by: Binx
 

       Verse
G|----------------------------|
D|-------------3-4-3----------|
A|-------------------3------3-|
E|-1-x-2-1-x------------4-3---|
[ Tab from: http://www.guitartabs.cc/tabs/g/godsmack/voodoo_btab_ver_2.html ]
       Chorus
G|------------------------|
D|-----------3-1---3-3----|
A|---1/3---3-----3-----3--|
E|-1-----1----------------|

G|-------------------------|
D|-----------3-6-6-5-5/6\5-|
A|---1/3---3---------------|
E|-1-----1-----------------|


Any suggestions, E-mail me: kriket1134@msn.com
Comments