Godsmack - Vodoo Chords & Tabs

 

Vodoo Chords & Tabs

Godsmack Chords & Tabs

Version: 1 Type: Bass Tab 0 ratings
1 star 2 stars 3 stars 4 stars 5 stars
comments

Vodoo Bass Tab

This may not be correct but I'm pretty sure it is.

Main Body
E |-------1---2---1---------------------------------3---2
A |-----------------------------------------3---2--------
D |-------------------2---3---2--------------------------
G |------------------------------------------------------
[ Tab from: http://www.guitartabs.cc/tabs/g/godsmack/vodoo_btab.html ]
Chorus    x3  x2  x2
E |-------1---0---1---4---3---4---3---2------------------
A |---1--------------------------------------------------
D |------------------------------------------------------
G |------------------------------------------------------

The first note of the Chorus hold for 2 beats. Try it out
I think it sounds really good.
Comments