Godsmack - Vampires Chords & Tabs

 

Vampires Chords & Tabs

Godsmack Chords & Tabs

Version: 3 Type: Bass Tab 0 ratings
1 star 2 stars 3 stars 4 stars 5 stars
comments

Vampires Bass Tab

Godsmack
Vampires
Bass Tab
Tuning: CGCF

this is my first attempt at tabbing out a song for bass.  any comments, leave them at 
emiliograveran@mindspring.com.
thanks.

Riff 1
F  ---------------------------------------------------------
C  ---------------------------------------------------------
G  ---------------------------------------------------------
C  -2-2--2/5-5--2/7-7----3times-----8-8-8-888\777777\5------

Riff 2
F  ---------------------------------------------------------
C  ---------------------------------------------------------
G  ---------------------------------------------------------
C  -2-2--2/5-5--2/5-5--2/5-5--2/5-5-------------------------

Riff 3
F  ---------------------------------------------------------
C  ---------------------------------------------------------
G  ---------------------------------------------------------
C  -22-2-2h5-2h5-22-22-22----3-times-then-with-riff-4-------

Riff 4
F  ---------------------------------------------------------
C  ---------------------------------------------------------
G  ---------------------------------------------------------
C  -22-2-2h5-2h5-2--rest--22-2-2h5-2h5-22-22-22-----7-times-

Riff 5
F  ---------------------------------------------------------
C  ---------------------------------------------------------
G  ---------------------------------------------------------
C  -22-2-2h5-2h5-2--22222222222222222222--------------------
[ Tab from: http://www.guitartabs.cc/tabs/g/godsmack/vampires_btab_ver_3.html ]
Riff 6
F  ---------------------------------------------------------
C  ---------------------------------------------------------
G  ---------------------------------------------------------
C  -2--0-0--3-2--8-9--0-0-0--4-3--22-22-22-22-2-2-----------

Riff 7
F  ---------------------------------------------------------
C  ---------------------------------------------------------
G  ---------------------------------------------------------
C  -2--0-0--3-2--8-9--0-0-0--22-----------------------------

Riff 8
F  ---------------------------------------------------------
C  ---------------------------------------------------------
G  ---------------------------------------------------------
C  -2--0-0--3-2--8-9--0--22--0-0----------------------------

Riff 9
F  ---------------------------------------------------------
C  ---------------------------------------------------------
G  ---------------------------------------------------------
C  -2--0-0--3-2--8-9--0-22-0-0-22-0-0-22-0-0-2-0-0-0--2-----

Riff 10
F  ---------------------------------------------------------
C  ---------------------------------------------------------
G  ---------------------------------------------------------
C  -2-2--2/5-5--2/7-7--3times---8-8-8-888\77\\\-------------

Riff 11 (Outro)
F  ---------------------------------------------------------
C  ---------------------------------------------------------
G  ---------------------------------------------------------
C  -2-2--2/5-5--2/7-7----3times-----8-8-8-888\777777\5------
Comments