Godsmack - Vampires Chords & Tabs

 

Vampires Chords & Tabs

Godsmack Chords & Tabs

Version: 1 Type: Bass Tab 0 ratings
1 star 2 stars 3 stars 4 stars 5 stars
comments

Vampires Bass Tab

   
Song: Vampires
Artist: Godsmack
Album: Awake
Track: 9
Corrected by: Dave Rieger (korn@cbnnow.com) 
Originally tabbed by:Bryan Jarvinen (ibanezgsr200bass@yahoo.com)

This song's real easy to play but sounds pretty whack with distortion. This is 
my first tab but I'm pretty sure its perfect.I added a few missing riffs from 
the previous tab, and corrected all the ones here before.


Drop D-tuning

Guitars play through main riff first, then bass comes in a few seconds after 
drums



Riff 1/Main Riff

G|-----------------------------------------------------------------------------|
D|-----------------------------------------------------------------------------|
A|-----------------------------------------------------------------------------|
D|-0-0--0-3-3--3-5-5---0-0--0-3-3--3-5-5---0-0--0-3-3--3-5-5--6-6-6-666-55-5-5-|

Riff 2
[ Tab from: http://www.guitartabs.cc/tabs/g/godsmack/vampires_btab.html ]
G|-------------------------------------------------------------------------------|
D|-------------------------------------------------------------------------------|
A|-------------------------------------------------------------------------------|
D|-0-0--0-3-3--3-5-5---0-0--0-3-3--3-5-5---0-0--0-3-3--3-5-5---0-0--0-3-3--3-5-5-|


Riff 3

G|----------------------------|
D|----------------------------|
A|----------------------------|
D|-0h3--0h3--0h3--0h3---0-----|

                

Riff 4

G|--------------------------------------------------|
D|--------------------------------------------------|
A|--------------------------------------------------|
D|-0-0--00333-0-0-0-0--00---------------------------|

Riff 5

G|------------------------------------------------|
D|------------------------------------------------|
A|------------------------------------------------|
D|-3-000--5-00--6--000-33-00----------------------|


Riff 6

G|---------------------|
D|---------------------|
A|---------------------|
D|-33-33-33-33--3-3----|


Its pretty easy to figure out the order of it by listening to the song, you 
shouldnt have much trouble i dont think. E-mail any corrections, questions, 
comments, death threats, etc. to korn@cbnnow.com.

Comments