Godsmack - Touche Chords & Tabs

 

Touche Chords & Tabs

Godsmack Chords & Tabs

Version: 1 Type: Tab 0 ratings
1 star 2 stars 3 stars 4 stars 5 stars
comments

Touche Tab

   
Song: Touche
Artist: Godsmack
Album: The Other Side

Tuning: Drop D and down a half step (Db,Ab,Db,Gb,Bb,Eb)

Intro/Riff:
e----------------------------------|----------------------|
b----------------------------------|----------------------|
g----0h2---0h2---0h2---0h2---0h2---|----0h2---0h2---0-----|
d--0-----0-----0-----0-----0-----x3|--0-----0-----0-------|x1
a----------------------------------|----------------------|
d----------------------------------|----------------------|
[ Tab from: http://www.guitartabs.cc/tabs/g/godsmack/touche_tab.html ]
Verse:
Guitar 1:     Strum each chord
   D   C  Bm   D
e--2---0---3---2--|
b--3---1---0---3--|
g--2---0---0---2--| then play riff and repeat
d--0---2---x---0--|
a--0---3---2---0--|
d--0---x---x---0--|

Guitar 2:
e--10--8---7---5--|
b--x---x---x---x--|
g--7---5---4---2--|
d-----------------|
a-----------------|
d-----------------|

Chorus:
e--------------------------------------------|
b--------------------------------------------|
g--------------------------------------------|
d--3-3-3-3--3--3-3-3-3-3-3-3h5--5-3-5--3--0--| then play riff and repeat
a--3-3-3-3--3--3-3-3-3-3-3-3h5--5-3-5--3--0--|
d--3-3-3-3--3--3-3-3-3-3-3-3h5--5-3-5--3--0--|

Bridge:
Dsus2 F/G  C   G
e--0---3---0---x-|
b--3---1---1---3-|
g--2---2---0---0-|
d--0---3---2---0-|
a--0---x---3---x-|
d--0---x---x---5-|
Comments