Godsmack - Touche Chords & Tabs

 

Touche Chords & Tabs

Godsmack Chords & Tabs

Version: 2 Type: Bass Tab 0 ratings
1 star 2 stars 3 stars 4 stars 5 stars
comments

Touche Bass Tab

   
  Touche
  Godsmack
  Bass Tab-  5 or 6 String

  Im using a standard 5-String tuning.
  Listen for your timing.

  G-------|
  D-------|
  A-------|
  E---9---|
  B-------|

            verse           x2               Chorus                 x2
 G--------------------------  --------------------------------------|
 D--------------------------  --------------------------------------|
 A--------------------------  --------------------------------------|
 E--9-----8-7-6-----9-9p8h9-  -9-7--------------------------9-9p8h9-|
 B---------------7----------  -----9-7-5--5--5-7--7-7-5-7-5---------|
                                   And I...


   2nd Verse--  Wasting time....
[ Tab from: http://www.guitartabs.cc/tabs/g/godsmack/touche_btab_ver_2.html ]
   2nd Chorus
                                                         x4
  G-------------------------------------------------------|
  D-------------------------------------------------------|
  A------------------------------9h11--9h11--9h11--9h11---|
  E--9-7------------------------9-----9-----9-----9-----9-|
  B------9-7-5-5-5-57-7-7-5-7-5---------------------------|

  Bridge               x3
  G---------------------  ---------------------------------|
  D---------------------  ---------------------------------|
  A---------------------  ---------------------------------|
  E-9----12----7--------  ----9------12------7-------------|
  B------------------7--  --------------------------777777-|

  ahhh.. ahhh..ahhh

  Chorus 3-- same as 2nd Chorus

 /  slide up
| \  slide down
| h  hammer-on
| p  pull-off
| ~  vibrato
| +  harmonic
| x  Mute note


  This is a frickin awesome song.
  Not really complicated but a lot of fun to play.
  Hope I did a decent job for ya.
  Im happy to make corrections if someone will email me about it.
  tyson82_@excite.com
Comments