Godsmack - Touche 5 String Chords & Tabs

 

Touche 5 String Chords & Tabs

Godsmack Chords & Tabs

Version: 1 Type: Bass Tab 0 ratings
1 star 2 stars 3 stars 4 stars 5 stars
comments

Touche 5 String Bass Tab

  Touche
  Godsmack
  Bass Tab-  5 or 6 String
  tabbed by-  Tyson Brewer


  Im using a standard 6-String tuning.
  Listen for your timing.

  G-------
  D-------
  A-------
  E---9---
  B-------

  
 
            verse           x2               Chorus                 x2
 G--------------------------  --------------------------------------  
 D--------------------------  -------------------------------------- 
 A--------------------------  -------------------------------------- 
 E--9-----8-7-6-----9-9p8h9-  -9-7--------------------------9-9p8h9-
 B---------------7----------  -----9-7-5--5--5-7--7-7-5-7-5---------
                                   And I...

[ Tab from: http://www.guitartabs.cc/tabs/g/godsmack/touche_5_string_btab.html ]
   2nd Verse--  Wasting time.... 
   
   2nd Chorus 
                                                         x4
  G------------------------------------------------------
  D------------------------------------------------------
  A------------------------------9h11--9h11--9h11--9h11--
  E--9-7------------------------9-----9-----9-----9-----9
  B------9-7-5-5-5-57-7-7-5-7-5--------------------------



  Bridge               x3                            
  G---------------------  --------------------------------
  D---------------------  --------------------------------
  A---------------------  --------------------------------
  E-9----12----7--------  ----9------12------7------------
  B------------------7--  --------------------------777777    

  ahhh.. ahhh..ahhh

  Chorus 3-- same as 2nd Chorus




  This is a frickin awesome song.  
  Not really complicated but a lot of fun to play.
  Hope I did a decent job for ya. 
  Im happy to make corrections if someone will email me about it.  
  tyson82_@excite.com

Comments