Godsmack - Timebomb Chords & Tabs

 

Timebomb Chords & Tabs

Godsmack Chords & Tabs

Version: 1 Type: Tab 0 ratings
1 star 2 stars 3 stars 4 stars 5 stars
comments

Timebomb Tab

Timebomb
By:Godsmack
Tabbed by:Andy Finck
Tuning:Drop D


  verse
e---------------------------------------------------------------------
b---------------------------------------------------------------------
g---------------------------------------------------------------------
d-5/7-7-7-777-7/8---5/7-7-7-777\0----5/7-7-7-777/10---5/7-7-7-777\0---
a-3/5-5-5-555-5/6---3/5-5-5-555\0----3/5-5-5-555/-8---3/5-5-5-555\0---
d---------------------------------------------------------------------
  I'm in a livin'hell..................................
[ Tab from: http://www.guitartabs.cc/tabs/g/godsmack/timebomb_tab.html ]
  chorus
e---------------------------------------------------------------------
b---------------------------------------------------------------------
g---------------------------------------------------------------------
d--5/7-77-77-5/7-7-8-5--5/7-77-77-5/7-7-8-5------X2-------------------
a--5/7-77-77-5/7-7-8-5--5/7-77-77-5/7-7-8-5------X2-------------------
d--5/7-77-77-5/7-7-8-5--5/7-77-77-5/7-7-8-5------X2-------------------
          pm    pm             pm    pm
   I Feel your pins through my eyes...................

  The outro is alot like the verse,but a hell of alot faster.
  just listen to the cd. You'll figure it out.
  Thats pretty much it! Cool huh?		

               Questions,comments at andy@netpluscom.com


				Godsmack kicks ass!!!
Comments