Godsmack - Stress Chords & Tabs

 

Stress Chords & Tabs

Godsmack Chords & Tabs

Version: 2 Type: Tab 0 ratings
1 star 2 stars 3 stars 4 stars 5 stars
comments

Stress Tab

   
                      GODSMACK-STRESS
Drop D tuning

This is strait from the book so don't argue!

intro(main riff) :

e|-----------------------------|------------------------|
b|-----------------------------|------------------------|
g|-----------------------------|------------------------|
d|--0h4-4-4-4--0h4-4-4-4--0h4-5|-0h4-4-4-4--0h4-4-4-4--4|
a|--0h4-2-2-2--0h2-2-2-2--0h2-3|-0h2-2-2-2--0h2-2-2-2--2|
d|-----------------------------|------------------------|

chorus:

e|--------------|---------------------|-----------------|
b|--------------|---------------------|-----------------|
g|--------------|---------------------|-----------------|
d|/9---9---9-9-9|7---7---12-(12)\7-(7)|0h4-4-4-4--0h4...|
a|/7---7---7-7-7|5---5---10-(10)\5-(5)|0h2-2-2-2--0h2...|
d|--------------|---------------------|-----------------|
[ Tab from: http://www.guitartabs.cc/tabs/g/godsmack/stress_tab_ver_2.html ]
Interlude:
                                     
e|-------------------------------|----------------------|
b|-------------------------------|----------------------|
g|-------------------------------|------repeat----------|
d|2-2-2-2-2-2-2-2-2-3-3-3-0-0-0-0|2-2-2..........-------|
a|-------------------------------|----------------------|
d|2-2-2-2-2-2-2-2-2-3-3-3-0-0-0-0|2-2-2..........-------|
  - - - - - - - - - - - - - - - - - - - - - - - - - - - -
  palm muted                       palm muted

Bridge:

e|---------------------------------|--------------------|
b|---------------------------------|--------------------|
g|---------------------------------|--------------------|
d|10s9-9-9-9-9-9-9-9---9-9-10s9-9-9|10s9-9-9--7-7-7-7-7-|
a|10s9-9-9-9-9-9-9-9---9-9-10s9-9-9|10s9-9-9--7-7-7-7-7-|
d|10s9-9-9-9-9-9-9-9---9-9-10s9-9-9|10s9-9-9--7-7-7-7-7-|

Thats all the main parts. I'll tab all the end effects parts out later. Listen to the 
song to get the timing.

b=bend
s=slide
Comments