Godsmack - Stress Chords & Tabs

 

Stress Chords & Tabs

Godsmack Chords & Tabs

Version: 1 Type: Tab 0 ratings
1 star 2 stars 3 stars 4 stars 5 stars
comments

Stress Tab

   
song: Stress
artist: Godsmack
album: Godsmack

Dropped D Tuning

Verse 1
E---------------------------------------------------|
B---------------------------------------------------|
G---------------------------------------------------|
D-2h4-4-4-4-2h4-4-4-4--2/5-7--2h4-4-4-4-2h4-4-4-4-4-| x8
A-2h4-4-4-4-2h4-4-4-4--2/5-7--2h4-4-4-4-2h4-4-4-4-4-| 
D-2h4-4-4-4-2h4-4-4-4--2/5-7--2h4-4-4-4-2h4-4-4-4-4-|


Chorus
E--------------------|
B--------------------|
G--------------------|
D-4---4-4-\-2-/-7--2-|
A-4---4-4-\-2-/-7--2-|
D-4---4-4-\-2-/-7--2-|

E-----------------------------|----------------------------|
B-----------------------------|----------------------------|
G-----------------------------|----------------------------|
D-4-4-4-4-4--4-4-4-4-4--4h5-4-|4-4-4-4-4--4-4-4-4-4--4h5-4-|
A-4-4-4-4-4--4-4-4-4-4--4h5-4-|4-4-4-4-4--4-4-4-4-4--4h5-4-|
D-4-4-4-4-4--4-4-4-4-4--4h5-4-|4-4-4-4-4--4-4-4-4-4--4h5-4-|

E--------------------|
B--------------------|
G--------------------|
D-4---4-4-\-2-/-7--2-|
A-4---4-4-\-2-/-7--2-|
D-4---4-4-\-2-/-7--2-|

[ Tab from: http://www.guitartabs.cc/tabs/g/godsmack/stress_tab.html ]
Quiet Picking
D---------------------------------|
A---------------------------------| x4
D-4-4-4-4-4-4-4-4-4-4-5-5-7-7-5-5-|

Verse x6
Chorus
Quiet Picking x 12


Verse 2
E---------------------------|--------------------------|
B---------------------------|--------------------------|
G---------------------------|--------------------------|
D-4-4-4-4-4--4-4-4-4--4/5-7-|4-4-4-4-4--4-4-4--1-1-1-1-| x4...x6
A-4-4-4-4-4--4-4-4-4--4/5-7-|4-4-4-4-4--4-4-4--1-1-1-1-|
D-4-4-4-4-4--4-4-4-4--4/5-7-|4-4-4-4-4--4-4-4--1-1-1-1-|


Verse 3
E---------------------------|--------------------------|
B---------------------------|--------------------------|
G---------------------------|--------------------------| 
D-4-4-4-4-4--4-4-4-4--4/5-7-|4-4-4-4-4--4-4-4-4--4/5-7-| x3
A-4-4-4-4-4--4-4-4-4--4/5-7-|4-4-4-4-4--4-4-4-4--4/5-7-|
D-4-4-4-4-4--4-4-4-4--4/5-7-|4-4-4-4-4--4-4-4-4--4/5-7-|


Verse 4
E---------------------------|-------------------|
B---------------------------|-------------------|
G---------------------------|-------------------| 
D-4-4-4-4-4--4-4-4-4--4/5-7-|4-4-4-4-4--4-4-4-4-|
D-4-4-4-4-4--4-4-4-4--4/5-7-|4-4-4-4-4--4-4-4-4-|
D-4-4-4-4-4--4-4-4-4--4/5-7-|4-4-4-4-4--4-4-4-4-|

 
Comments