Godsmack - Straight Out Of Line Chords & Tabs

 

Straight Out Of Line Chords & Tabs

Godsmack Chords & Tabs

Version: 3 Type: Tab 0 ratings
1 star 2 stars 3 stars 4 stars 5 stars
comments

Straight Out Of Line Tab

GODSMACK - STRAIGHT OUTTA LINE

CGCFAD TUNING

intro
|----------------------------------|
|----------------------------------|
|----------------------------------|
|----------------------------------|
|--7~/--10~/-9~--12~-/7~---10~-9~--|
|----------------------------------|

|------------------------------|
|------------------------------|
|------------------------------|   repeat 2x, then pickslide on C+G,
|--0--2-2-2---0--2-2-2---0-3---|   then repeat 2 more times
|--0--2-2-2---0--2-2-2---0-3---|
|--0--2-2-2---0--2-2-2---0-3---|
[ Tab from: http://www.guitartabs.cc/tabs/g/godsmack/straight_out_of_line_tab_ver_3.html ]
verse
|------------------------|
|--5-x-5-5-x--5-5-x-x-5--| listen to song to figure out how many times to repeat
|------------------------|
|------------------------|
|------------------------|
|------------------------|

chorus
|----------------------------------------|
|---------------33-3---------------------|
|---------------22-2---------------------|  i dunno how many times 
|--2-2--5-5-55--00-0--0--3-3--5--2--0----|  to strum them, listen to the song.
|--2-2--5-5-55--00-0--0--3-3--5--2--0----|
|--2-2--5-5-55--00-0--0--3-3--5--2--0----|


thats it, listen to the song to figure out the order and timming,
 and i will have the solo tabbed out sooner or later
Comments