Godsmack - Straight Out Of Line Chords & Tabs

 

Straight Out Of Line Chords & Tabs

Godsmack Chords & Tabs

Version: 2 Type: Tab 1 rating
1 star 2 stars 3 stars 4 stars 5 stars
comments

Straight Out Of Line Tab

Godsmack-Straight Out Of Line
Album- Faceless
Tuning-CGCFAD low to high
Decent Distortion
This is an awesome song and I didn't have enough time to complete it 
but the part I have is 100% accurate enjoy (And The rhythms aren't
perfect but just listen too find out!)
[ Tab from: http://www.guitartabs.cc/tabs/g/godsmack/straight_out_of_line_tab_ver_2.html ]
Guitar 1
Intro
D ------------------------------------------------------------
A ------------------------------------------------------------
F ------------------------------------------------------------
C ------------------------------------------------------------
G -7----------------10------------9----------12---------------
C ------------------------------------------------------------
6counts crescendo   4(counts)    2 1/2      1 1/2
D ------------------------------------------------------------
A ------------------------------------------------------------
F ------------------------------------------------------------
C ------------------------------------------------------------
G -7----------------------------------------------------------
C ------------------------------------------------------------
let fade and rest 
guitar 2 comes in with (while "let fade and rest" that's above)
D ------------------------------------------------------------
A ------------------------------------------------------------
F ------------------------------------------------------------
C ------------------------------------------------------------
G ------------------------------------------------------------
C -0-2-2-2-0-0-0-2-2-2-0-0-0-2-2-3--0-2-2-2-0-0-0-2-2-2-0-0-0-
  16ths
D ------------------------------------------------------------
A ------------------------------------------------------------
F ------------------------------------------------------------
C ------------------------------------------------------------
G ------------------------------------------------------------
C 2-2-3-------------------------------------------------------
Then Guitar One has
D ------------------------------------------------------------
A ------------------------------------------------------------
F ------------------------------------------------------------
C ------------------------------------------------------------   
G --10---------------------------9----------------------------
C ------------------------------------------------------------
   Crescendo and 3 counts a piece
While Guitar 2 has
D ------------------------------------------------------------
A ------------------------------------------------------------
F ------------------------------------------------------------
C ------------------------------------------------------------
G ------------------------------------------------------------
C -0-2-2-2-0-0-0-2-2-2-0-0-0-2-2-3--0-2-2-2-0-0-0-2-2-2-0-0-0-
  16ths
D ------------------------------------------------------------
A ------------------------------------------------------------
F ------------------------------------------------------------
C ------------------------------------------------------------
G ------------------------------------------------------------
C 2-2-3-------------------------------------------------------


Then it goes into the heavy part where the bass and guitars have
full parts - then goes to the verse


Verse
D -------------------------------------------------------------
A -------------------------------------------------------------
F ----9---9---9---9----9---9----9-----9-----9----9----9----9---
C -------------------------------------------------------------
D -------------------------------------------------------------
C -------------------------------------------------------------
 The Rhythm isn't correct but guitar 1 has this throughout whole
verse

Chorus
D ------------------------------------------------------------
A ------------------------------------------------------------
F ------------------------------------------------------------
C -2----2---2-2------2----2-2222-5----5---5-5------5----5-5555
G -2----2---2-2------2----2-2222-5----5---5-5------5----5-5555
C -2----2---2-2------2----2-2222-5----5---5-5------5----5-5555
Rhythms for chorus are close but are not quite right, so listen
D ------------------------------------------------------------
A -3----3---3-3------3----3-3333------------------------------
F -2----2---2-2------2----2-2222------------------------------
C -0----0---0-0------0----0-0000-3----3---3-3------3----3-3333
G -0----0---0-0------0----0-0000-3----3---3-3------3----3-3333
C -0----0---0-0------0----0-0000-3----3---3-3------3----3-3333
too song for correct rhythms
D ------------------------------------------------------------
A ------------------------------------------------------------
F ------------------------------------------------------------
C -2----2---2-2------2----2-2222-5----5---5-5------5----5-5555
G -2----2---2-2------2----2-2222-5----5---5-5------5----5-5555
C -2----2---2-2------2----2-2222-5----5---5-5------5----5-5555
                                Lie to me___
D ------------------------------------------------------------
A -3----3---3-3------3----3-3333------------------------------
F -2----2---2-2------2----2-2222------------------------------
C -0----0---0-0------0----0-0000-5----------------------------
G -0----0---0-0------0----0-0000-3----------------------------
C -0----0---0-0------0----0-0000-3----------------------------
  Lie 
D ------------------------------------------------------------
A ------------------------------------------------------------
F ------------------------------------------------------------
C -5---------------5------------------------------------------
G -3---------------3------------------------------------------
C -3---3-------3---3---3-------3------------------------------


Then the solo


Comments