Godsmack - Straight Out Of Line Chords & Tabs

 

Straight Out Of Line Chords & Tabs

Godsmack Chords & Tabs

Version: 1 Type: Tab 0 ratings
1 star 2 stars 3 stars 4 stars 5 stars
comments

Straight Out Of Line Tab

Tuning CGCFAD

Intro: (w/dist. and delay)
D|--------------------------------------------------------------|
A|--------------------------------------------------------------|
F|--------------------------------------------------------------|
C|--------------------------------------------------------------|
G|--(7)~~~~~(7)\---(10)~~~~~-(10)\9--(9)~~~12~~~(12)\-----(7)~~-|
C|--------------------------------------------------------------|

D|---------------------------------------------------|
A|---------------------------------------------------|
F|---------------------------------------------------|
C|---------------------------------------------------|
G|---10~~~~~~(10)~~~(10)\9--(9)~~~~~~~~(9)-----------|
C|---------------------------------------------------|
Guitar 2
D|---------------------------------------------------------|
A|---------------------------------------------------------|
F|---------------------------------------------------------|
C|---------------------------------------------------------|
G|---------------------------------------------0-0h2-2-2---|
C|--0-2-2-2^-0-0-02-2-2^-0-0-02-2h3-0h2-2-2^h0-0-0h2-2-2---|
pm.............................

Heavy Part
D|---------------------------------------------------|
A|---------------------------------------------------|
F|---------------------------------------------------|
C|--0---2-2--2-0-0---2-2---0--0---3------------------|
G|--0---2-2--2-0-0---2-2---0--0---3------------------|
C|--0---2-2--2-0-0---2-2---0--0---3------------------|

D|-----------------------------------------------------------|
A|-----------------------------------------------------------|
F|-----------------------------------------------------------|
C|-0-2-2-2-0-0--2-0--0-0h2-2h3--0--2-2-2-0-0--2-2--0-0---3---|
G|-0-2-2-2-0-0--2-0--0-0h2-2h3--0--2-2-2-0-0--2-2--0-0---3---|
C|-0-2-2-2-0-0--2-0--0-0h2-2h3--0--2-2-2-0-0--2-2--0-0---3---|

FIll:
D|------------------------------|
A|------------------------------|
F|------------------------------|
C|---0h2-2-2p0-0-0h2-2-2p0-0----|
G|---0h2-2-2p0-0-0h2-2-2p0-0----|
C|---0h2-2-2p0-0-0h2-2-2p0-0----|
pm(with feedback)...............

Verses:
D|-------------------------------------|---------------------|
A|-------------------------------------|---------------------|
F|---9--x9h9-x-9----x-9-----x-9----9--o|-9---x-9h9-x9-x-9-x--|
C|------------------------------------o|---------------------|
G|-------------------------------------|---------------------|
C|-------------------------------------|---------------------|

D|-------------------------------------|---------------------|
A|-------------------------------------|---------------------|
F|---9--x9h9-x-9----x-9-----xxxxx-----o|-9---x-9h9-x9-x-9-9--|
C|------------------------------------o|---------------------|
G|-------------------------------------|---------------------|
C|-------------------------------------|---------------------|

Chorus: Listen for exact strums
D|-----------------------------------------------------------------------|
A|---------------------------------3---333-3-3-3-------------------------|
F|---------------------------------2---222-2-2-2-------------------------|
C|--2---222-222--2-5-5-555-5-555-5-0---000-0-0-0--0-0--3-333--222--00----|
G|--2---222-222--2-5-5-555-5-555-5-0---000-0-0-0--0-0--3-333--222--00----|
C|--2---222-222--2-5-5-555-5-555-5-0---000-0-0-0--0-0--3-333--222--00----|

continued:
D|-------------------------------------------------------------|
A|--------------------------------------3-333-3333-3-----------|
F|--------------------------------------2-222-2222-2-----------|
C|--2--22-222-2-2/5--55-55555-55-5--0---0-000-0000-0--0-0--5---|
G|--2--22-222-2-2/5--55-55555-55-5--0---0-000-0000-0--0-0--3---|
C|--2--22-222-2-2/5--55-55555-55-5--0---0-000-0000-0--0-0--3---|

Fill:
D|----------------------------------|
A|----------------------------------|
F|----------------------------------|
C|--5---5-5--5----5----5-5---5------|
G|--3---3-3--3----3----3-3---3------|
C|--3---3-3--3----3----3-3---3------|
pm        ....           .....
[ Tab from: http://www.guitartabs.cc/tabs/g/godsmack/straight_out_of_line_tab.html ]
D|------------------------------------------------------|
A|------------------------------------------------------|
F|------------------------------------------------------|
C|-0--2-2--2-0-0--2-2--0---0--3----0-2-2-0-0-0h2-2h3----|
G|-0--2-2--2-0-0--2-2--0---0--3----0-2-2-0-0-0h2-2h3----|
C|-0--2-2--2-0-0--2-2--0---0--3----0-2-2-0-0-0h2-2h3----|

Interlude: (glass-slide is used in here)
D|-------------------------------------------------------------|
A|-------------------------------------------------------------|
F|---9-------9-----(9)~~~------------------------------------x-|
C|---8-------8---------------------------------------------x---|
G|-------------------------------x*-----x/---------------------|
C|----------------------------5--x*-------------x/8h(8)/9\-----|

D|-------------------------------------------------------------|
A|-------------------------------------------------------------|
F|------------------------------------9-9---9---9-9--9---------|
C|----------------------------x---8---8-8---8---9-9--9---------|
G|--6--7---7~~~~~--(7)----x------------------------------------|
C|-------------------------------------------------------------|

Guitar Solo: with wah
D|-/0----0--0--0---0--0-0-0--0--0---0----0----0----0--0---0----|
A|--5----5--5--5---5--5/8-8--8--8--11---11---11---11-11--11----|
F|-------------------------------------------------------------|
C|-------------------------------------------------------------|
G|-------------------------------------------------------------|
C|-------------------------------------------------------------|

continued:
D|---15^-------12--------------------------------------------------|
A|--full----------15h1215h12----12---------------------------------|
F|---------------------------15----15-14-15 14h12-----12h14-12-----|
C|-------------------------------------------------14--------------|
G|-----------------------------------------------------------------|
C|-----------------------------------------------------------------|

continued:
D|---------15^----(15)----15^-(15)---12--1215h12---0-------15-------------|
A|--0--0--full------------15^-(15)-----15-------15---15/17----17(17)\5/---|
F|-----------------------half---------------------------------------------|
C|------------------------------------------------------------------------|
G|------------------------------------------------------------------------|
C|------------------------------------------------------------------------|

D|----15---17-----15--17----15----17--------15---18----15-15----18-----22^(22)-|
A|-19---19----19----19--1919---19-----11/17----17---17-17----17---1717---------|
F|-----------------------------------------------------------------------------|
C|-----------------------------------------------------------------------------|
G|-----------------------------------------------------------------------------|
C|-----------------------------------------------------------------------------|

Fill:
D|------------------------|
A|------------------------|
F|------------------------|
C|--3-33-33-3333-3333-----|
G|--3-33-33-3333-3333-----|
C|--3-33-33-3333-3333-----|
pm    ................

Outro:
D|------------------------------------------------------------------------------|
A|------------------------------------------------------------------------------|
F|------------------------------------------------------------------------------|
C|-0-2-2-0-0--2-2-0-0--3---0-2-2-2-0-0-2-2-0-------2h3--0-2-2-2-0-0--2-2-0-0-3--|
G|-0-2-2-0-0--2-2-0-0--3---0-2-2-2-0-0-2-2-0-------2h3--0-2-2-2-0-0--2-2-0-0-3--|
C|-0-2-2-0-0--2-2-0-0--3---0-2-2-2-0-0-2-2-0--12\--2h3--0-2-2-2-0-0--2-2-0-0-3--|

D|------------------------------------------------------------------------------|
A|------------------------------------------------------------------------------|
F|------------------------------------------------------------------------------|
C|-0--22-2-0-0--2-2--0-0h2-2h3---0-2-2-0-0--2-2--0-0--3--0h2-2-2p0-0-0h2-2h3----|
G|-0--22-2-0-0--2-2--0-0h2-2h3---0-2-2-0-0--2-2--0-0--3--0h2-2-2p0-0-0h2-2h3----|
C|-0--22-2-0-0--2-2--0-0h2-2h3---0-2-2-0-0--2-2--0-0--3--0h2-2-2p0-0-0h2-2h3----|
pm                                                       ..............
Comments