Godsmack - Straight Out Of Line Chords & Tabs

 

Straight Out Of Line Chords & Tabs

Godsmack Chords & Tabs

Version: 1 Type: Bass Tab 0 ratings
1 star 2 stars 3 stars 4 stars 5 stars
comments

Straight Out Of Line Bass Tab

   
godsmack - straight out of line


  b = Bend String Down
  h = Hammer Down/On
 ( )= Land On That Note Without Striking
  p = Pull Off
  / = Slide Up
  \ = Slide Down
  ~ = Let Note Ring

Intro     Maybe a little string bend
F:-------------------------------------------------------|
C:-1--h3--3-b3p--(1)-1-1--h3--1-b1p--(1)-1-1--h3--4-(1)--|
G:-------------------------------------------------------|
C:-------------------------------------------------------|

Intro A
Intro     Maybe a little string bend
F:-------------------------------------------------------|
C:-1--h3--3-b3p--(1)-1-1--h3--3-b3p--(1)-1-1--h3--4-(1)--|
G:-------------------------------------------------------|
C:-------------------------------------------------------|
 
The little break part
F:---------------------------------------------------|
C:--------------------------------------------1--4-4-|
G:---------------------------------------------------|
C:---------------------------------------------------|

Then back to the Intro A
F:-------------------------------------------------------|
C:-1--h3--3-b3p--(1)-1-1--h3--3-b3p--(1)-1-1--h3--4-(1)--|
G:-------------------------------------------------------|
C:-------------------------------------------------------|

Now the heavy opening.
Part B  1X
F:---------------------------------------------|
C:---------------------------------------------|
G:---------------------------------------------|
C:-0--0--2--2-2--0--0--2--2--0--3--------------|

Part C 2X  There is a variation below
F:---------------------------------------------|
C:---------------------------------------------|
G:---------------------------------------------|
C:-0--0--2-2--0--0--2-2--0-2-3-----------------|

Then the ring
F:---------------------------------------------|
C:--1~~~~~~~~~~~-------------------------------|
G:---------------------------------------------|
C:---------------------------------------------|
[ Tab from: http://www.guitartabs.cc/tabs/g/godsmack/straight_out_of_line_btab.html ]
Then again
Part B 1X
Part C 2X
       A variation of Part C like this:
F:---------------------------------------------|
C:---------------------------------------------|
G:---------------------------------------------|
C:-0--0--2-2--0--0--2-2--0-2-3-0---------------|

F:---------------------------------------------|
C:---------------------------------------------|
G:---------------------------------------------|
C:-0---h2--2--b2--(0)-0-0---h2--2--b2--(0)-0-0-|


Anyway For the verses just go back to:

Intro A

---------------------------------------------------------
Then the Chorus  (Simple Version)
Part D
F:-------------------------------------------------------|
C:---------------------------1--1--1----1-----4--4--4\-/-|
G:-------------------------------------------------------|
C:-3--3--1-3---34--4--3-4---4----------------------------|

Then
Part E
F:-------------------------------------------------------|
C:---------------------------1--1----1---1-------4~~~~~~-|
G:---------------------------------4---------------------|
C:-2--2--0-2---24--4--3-4---4----------------------------|

---------------------------------------------------------
---------------------------------------------------------
Or the Chorus  (More really going on Version)-

F:-------------------------------------------------------|
C:-------------------------------------------------------|
G:-------------------------------------------------------|
C:-2--2--0-2---2-2-(0)-0-0-------------------------------|

F:-------------------------------------------------------|
C:-------------------------------------------------------|
G:-------------------------------------------------------|
C:--------------4--4--3-4---4-4-4P3-3--------------------|

F:-------------------------------------------------------|
C:--1--1--1-1-----1\----4--4-4---4-4-4-h6p(4)-4-4--------|
G:-------------------------------------------------------|
C:-------------------------------------------------------|
Comments