Godsmack - Spiral Chords & Tabs

 

Spiral Chords & Tabs

Godsmack Chords & Tabs

Version: 9 Type: Tab

Spiral Tab

   
Spiral
--------

song-Spiral
band-Godsmack
album-Awake
year-2000
tabbed by-Bennyhill64

tuning
C,G,C,F,A,D

the song really starts out
in The Journey.so here it is:

Intro/The Journey
D|14-17-15-14--14-17-15-14-12--14-17-15-14----|
A|--------------------------------------------|
F|--------------------------------------------|
C|--------------------------------------------|
G|--------------------------------------------|
C|--------------------------------------------|

Main Riff
D|------------------------------------------------------------------------|
A|------------------------------------------------------------------------|
F|------------------------------------------------------------------------|
C|------------------------------------------------------------------------|
G|-----------------0------------------0------------------0----------------|
C|0-13-0-0-13-12p0----0-13-0-0-13-12----0-13-0-0-13-12p0----0-13-0-0-13-12|
 PM-----------------| PM---------------|PM----------------| PM-----------|

the Main Riff,Verse and Pre-Chorus
aren't really palm muted i just do
it because it sounds a lot better

Verse
D|------------------------------------------------------------------------|
A|------------------------------------------------------------------------|
F|------------------------------------------------------------------------|
C|------------------------------------------------------------------------|
G|-----------------0------------------0------------------0----------------|
C|0-13-0-0-13-12p0----0-13-0-0-13-12----0-13-0-0-13-12p0----0-13-0-0-13-12|
 PM-----------------| PM---------------|PM----------------| PM-----------|
[ Tab from: http://www.guitartabs.cc/tabs/g/godsmack/spiral_tab_ver_9.html ]
Pre-Chorus
D|------------------------------------------------------------------------|
A|------------------------------------------------------------------------|
F|------------------------------------------------------------------------|
C|------------------------------------------------------------------------|
G|-----------------0------------------0------------------0----------------|
C|0-13-0-0-13-12p0----0-13-0-0-13-12----0-13-0-0-13-12p0----0-13-0-0-13-12|
 PM-----------------| PM---------------|PM----------------| PM-----------|

Chorus
D|------------------------------------------------------------------|
A|------------------------------------------------------------------|
F|------------------------------------------------------------------|
C|5---5---5--0--1-----------10-----8-7-----10-----8-7---------------|
G|5---5---5--0--1-1-1--3--0--8-0-0-6-5-6-0--8-0-0-6-5-6-------------|
C|5---5---5--0--1-1-1--3--0----0-0-----6-0----0-0-----6-------------|

D|---------------------------------------------------------------------|
A|---------------------------------------------------------------------|
F|---------------------------------------------------------------------|
C|5--5--5---5--/8--8--8\1--1--1---10------8-7-----10-----8-7-----------|
G|5--5--5---5--/8--8--8\1--1--1-0--8--0-0-6-5-6-0--8-0-0-6-5-6---------|
C|5--5--5---5--/8--8--8\1--1--1-0-----0-0-----6-0----0-0-----6---------|

D|-----------------------------------|
A|-----------------------------------|
F|-----------------------------------|
C|--10-----8-7-----10-----8-7--------|
G|0--8-0-0-6-5-6-0--8-0-0-6-5--------|
C|0----0-0-----6-0----0-0------------|

Solo
D|------------------------------------------------------------|
A|--10----11-10h11p10-------10----13-10h11p10-----------------|
F|--------------------12----------------------12--------------|
C|0----0------------------0----0------------------------------|
G|------------------------------------------------------------|
C|------------------------------------------------------------|

D|-------------------------------------------------------|
A|--10---------------------------------------------------|
F|--------10-9h10p9--7--9-7----7\5--7---9--7--7---7------|
C|0----0----------------0---0--0--------0-----0---0------|
G|-------------------------------------------------------|
C|-------------------------------------------------------|

thats all you need to know really just figure what this does
and how many time it's played and you should be in buisiness
well enjoy!