Godsmack - Spiral Chords & Tabs

 

Spiral Chords & Tabs

Godsmack Chords & Tabs

Version: 7 Type: Tab 0 ratings
1 star 2 stars 3 stars 4 stars 5 stars
comments

Spiral Tab

   
---------------------------------------------------------------------------
			     Spiral - Godsmack
---------------------------------------------------------------------------
This is off of their acoustic cd 'otherside'

Tabbed by: esp_guitar_guru
[ Tab from: http://www.guitartabs.cc/tabs/g/godsmack/spiral_tab_ver_7.html ]
Tuning: Drop D and 1 step down (CGCFAc)
       ~                  ~                 ~
c|-----6--7-6h7p6\4-------6--9-7h9p7/4------6-------------------------------|
A|-4------------------4------------------4-----7-6h7p6\4-6-4----------------|
F|--------------------------------------------------------------------------|
C|--------------------------------------------------------------------------|
G|--------------------------------------------------------------------------|
C|--------------------------------------------------------------------------|
       ~                  ~                 ~
c|-----6--7-6h7p6\4-------6--9-7h9p7/4------6-------------------------------|
A|-4------------------4------------------4-----7-6h7p6\4-6-4-4--------------|
F|-------------------------------------------------------------6------------|
C|--------------------------------------------------------------------------|
G|--------------------------------------------------------------------------|
C|--------------------------------------------------------------------------|
       ~                  ~                 ~
c|-----6--7-6h7p6\4-------6--9-7h9p7/4------6-------------------------------|
A|-4------------------4------------------4-----7-6h7p6\4-6-4-4--------------|
F|-------------------------------------------------------------6------------|
C|--------------------------------------------------------------------------|
G|--------------------------------------------------------------------------|
C|--------------------------------------------------------------------------|

Second guitar part is as follows:
c|--------------------------------------------------------------------------|
A|--------------------------------------------------------------------------|
F|--------------------------------------------------------------------------|
C|-----4-1-1-2-1h2p1-------------4-1-1-2-1h2p1------------------------------|
G|---------------------4-------------------------4--------------------------|
C|--1-------------------------1---------------------------------------------|


| /  slide up
| \  slide down
| h  hammer-on
| p  pull-off
| ~  vibrato
| +  harmonic
| x  Mute note
============================================================================
Comments