Godsmack - Spiral Chords & Tabs

 

Spiral Chords & Tabs

Godsmack Chords & Tabs

Version: 6 Type: Tab 0 ratings
1 star 2 stars 3 stars 4 stars 5 stars
comments

Spiral Tab

I searched over and over again looking for this tab. I've decided to buy the book and 
it.

Godsmack - Spiral (Acoustic)

Tune all guitars to Drop D, down 1/2 step (Db Ab Db Gb Bb Eb)

Riff 1 (First guitar part played)

-----5~~~-------6--5h6p5--------5~~~-------8--5h6p5---|
-------------------------8--------------------------8-|
----------7--------------------------7----------------|
--0-------0------------------0-------0----------------|
------------------------------------------------------|
------------------------------------------------------|

-----5~~~----------------------|
----------------6--5h6p5-------|
----------7--------------7-9-7-|
--0-------0----------------0---|
-------------------------------|
-------------------------------|

Riff 2 (Played during intro, break, and outro)

-----5~~~-------6--5h6p5--------5~~~-------8--5h6p5---|
-------------------------8--------------------------8-|
----------7--------------------------7----------------|
--0-------0------------------0-------0----------------|
------------------------------------------------------|
------------------------------------------------------|
[ Tab from: http://www.guitartabs.cc/tabs/g/godsmack/spiral_tab_ver_6.html ]
-----5~~~--------------------------------|
----------------6--5h6p5-----------------|
----------7--------------7-9-7---7--5--7-|
--0-------0----------------0-------------|
-----------------------------------------|
-----------------------------------------|

Riff 3 (Played during intro, verses, break, and outro)

----------------------------------------|
----------------------------------------|
----------------------------------------|
----------------------------------------|
----8--------6-5p0-0-----8--------6-5-0-|
-0------0--0----------0------0--0-------|

Riff 4 (Played during chorus)

-------------------------------------------------|
-------------------------------------------------|
-7--7---7-7---7--7-7--7----3--3--3-3--3-3-3--3-5-|
-5--5---5-5---5--5-5--5-x--1--1--1-1--1-1-1--1-3-|
-5--5---5-5---5--5-5--5-x--1--1--1-1--1-1-1--1-3-|
-5--5---5-5---5--5-5--5-x--1--1--1-1--1-1-1--1-3-|

--------------------------------|
--------------------------------|
--------------------------------|
---10----8-7-------10----8-7----|
----8----6-5-6------8----6-5-6--|
-0-----0-----6---0-----0-----6--|

----------------------------------------------------|
----------------------------------------------------|
-7--7---7-7---7--7-7--7----10--10--10-10------3---3-|
-5--5---5-5---5--5-5--5-x---8---8---8--8--x-x-1-x-1-|
-5--5---5-5---5--5-5--5-x---8---8---8--8--x-x-1-x-1-|
-5--5---5-5---5--5-5--5-x---8---8---8--8--x-x-1-x-1-|

There you have it. Straight from the book. Enjoy it.
Comments