Godsmack - Spiral Chords & Tabs

 

Spiral Chords & Tabs

Godsmack Chords & Tabs

Version: 2 Type: Tab 0 ratings
1 star 2 stars 3 stars 4 stars 5 stars
comments

Spiral Tab

   
band: godsmack
song: spiral
tabber: Angel
tuning: Drop d (d,A,d,G,B,E) tune all strings down


 intro and verse: (light distortion) some of its palm muted...
for the most part its not.

1|--------------------------------|
2|--------------------------------|
3|--------------------------------|
4|--2--7--2--6-6--5--4-44---------|
5|--2--7--2--6-6--5--4-44---------|
6|--0--5--0--4-4--3--2-22---------|

1|------------------------------|
2|------------------------------|
3|------------------------------|
4|--2--7--2--6--5-5--4-4--------|
5|--2--7--2--6--5-5--4-4--------|
6|--0--5--0--4--3-3--2-2--------|



pre-corus: (heavy distortion) in some of the pre-chorus theirs pal mutes.

1|-----------------------------------|
2|-----------------------------------|
3|--2/4---4-4-4---4/2---2-2---2/4----|
4|--3/5---5-5-5---5/3---3-3---3/5----|
5|--3/5---5-5-5---5/3---3-3---3/5----|
6|--1/3---3-3-3---3/1---1-1---1/3----|

[ Tab from: http://www.guitartabs.cc/tabs/g/godsmack/spiral_tab_ver_2.html ]
chorus:  (heavy distorion)

1|-------------------------|
2|-------------------------|
3|-------------------------|
4|--2--7--2--6-5-5--4------|
5|--2--7--2--6-5-5--4------|
6|--0--5--0--4-3-3--2------|


1|--------------------------------|
2|--------------------------------|
3|--------------------------------|
4|---2--7--2--6--6--5-55--4--4----|
5|---2--7--2--6--6--5-55--4--4----|
6|---0--5--0--4--4--3-33--2--2----|   "Ride away live again spiral never. It's
just ride away live again spiral never..."    (i know its not all right for the
lyrics)


Bridge: (the second time the bridge is played he skips around in this section.
the notes are the same)

1|--------------|---------------|--------------|-------------| 
2|---8--8-8^9^8-|---9--9-9^10^9-|---7--7-7^8^7-|-------------| 
3|-8------------|-9-------------|-8------------|-8-7--5-5--3-| 
4|--------------|---------------|--------------|-------------| 
5|--------------|---------------|--------------|-------------| 
6|--------------|---------------|--------------|-------------|
Comments