Godsmack - Spiral Chords & Tabs

 

Spiral Chords & Tabs

Godsmack Chords & Tabs

Version: 1 Type: Bass Tab 0 ratings
1 star 2 stars 3 stars 4 stars 5 stars
comments

Spiral Bass Tab

   
Updated: 11-12-00

Song: Spiral
Artist: Godsmack
Album: Awake
Released: 10-31-00
Transcribed by: "Joe Black" From The Bronx!

I'm not 100% on this one but it's close.

Tuning for 4 string: C-G-C-F

========= Section (a) =============
Repeat 6 times
F:-----------------------------|
C:-----------------------------|
G:-----8---------6---------0---|
C:--0-----0--0-------0--0--7---|

F:-----------------------------|
C:-----------------------------|
G:-----8-----------6--5--0-----|
C:--0-----0--0-----------7-----|

F:-----------------------------|
C:-----------------------------|
G:-----8---------6----------0--|
C:--0-----0--0-------0--0---7--|

F:-----------------------------|
C:-----------------------------|
G:-----8-----------6--5--------|
C:--0-----0--0-----------------|

===========End of Section===========


========= Section (b) ==============

F:---------------------------------------|
C:---------------------------------------|
G:---------------------------------------|
C:--5----5----5----1----1----1--1--1--3--|

F:-----------------------------|
C:-----------------------------|
G:-----8-----------6--5--0-----|
C:--0-----0--0-----------7-----|
[ Tab from: http://www.guitartabs.cc/tabs/g/godsmack/spiral_btab.html ]
F:-----------------------------|
C:-----------------------------|
G:-----8-----------6--5--0-----|
C:--0-----0--0-----------7-----|

F:------------------------------------|
C:------------------------------------|
G:------------------1---1-------------|
C:--5----5----5--------------1--0--1--|

===========End of Section==============



Part (c)       Repeat it 3 times
F:-----------------------------|
C:-----------------------------|
G:-----8-----------6--5--0-----|
C:--0-----0--0-----------7-----|

Part (d)
F:-----------------------------|
C:-----------------------------|
G:-----8-----------6--5--------|
C:--0-----0--0-----------------|

F:---------------------|
C:---------------------|
G:--5~-------------5~--|
C:---------------------|


Play Section (a) 5 times
Play Section (b)
Play Part (c) 3 times
Play Part (d)
Play Part (c) 3 times
Play Part (d)
Play Section (a) 4 times
Play Section (b)
Play Part (c) 3 times
Play Part (d)
Play Part (c) 3 times
Play Part (d)


F:------|
C:------|
G:------|
C:--0~--|


Play Part (d)


Part (e)      repeat it 3 times
F:-----------------------------|
C:-----------------------------|
G:-----8-----------6--5--------|
C:--0-----0--0-----------7-----|


Play Part (d)
Play Part (e) 3 times
Play Play Part (d)
Play Part (e) 3 times
Play Part (d)
Play Part (e) 3 times
Play Part (d)

The End

Comments