Godsmack - Speak Chords & Tabs

 

Speak Chords & Tabs

Godsmack Chords & Tabs

Version: 2 Type: Tab

Speak Tab

   
h=hammer on
p=pull off
/or=slide
P.M.=plam mute
*=harmonic
~=vibrato
b=bend

I saw that they play the song different on The Tonight show and Jimmy Kimmel so this is 
I seen.

Intro:Uses some kinda wah effect with this.
E----------|
B----------|
G--7-------|
D--X-------|
A--5-------|
D--5-------|

E-------------------------------------------------------|
B-------------------------------------------------------|
G-------------------------------------------------------|
D-------------------------------------------------------|
A-3p2--2-2--3p2--2----5-3-2--3p2--2-2--3p2--2----5-3-2--|
D-3p2--2-2--3p2--2----5-3-2--3p2--2-2--3p2--2----5-3-2--|

E-------------------------------------------------------|
B-------------------------------------------------------|
G--------------------------------------5----------------|
D--------------------------------------5----------------|
A-3p2--2-2--3p2--2----5-3-2--3p2--2-2--3----------------|
D-3p2--2-2--3p2--2----5-3-2--3p2--2-2--3----------------|

E-------------------------------------------------------|
B-------------------------------------------------------|
G-------------------------------------------------------|
D-------------------------------------------------------|
A-3p2--2-2--3p2--2----5-3-2--3p2--2-2--3p2--2----5-3-2--|
D-3p2--2-2--3p2--2----5-3-2--3p2--2-2--3p2--2----5-3-2--|


E-------------------------------------------------------|
B-------------------------------------------------------|
G--------------------------------------7----------------|
D--------------------------------------7----------------|
A-3p2--2-2--3p2--2----5-3-2--3p2--2-2--5----------------|
D-3p2--2-2--3p2--2----5-3-2--3p2--2-2--5----------------|

Verse:Play 7 times, Sully doesn't play during this part.
E-------------------------------------------------------|
B-------------------------------------------------------|
G-------------------------------------------------------|
D-------------------------------------------------------|
A-3p2--2-2--3p2--2----5-3-2--3p2--2-2--3p2--2----5-3-2--|
D-3p2--2-2--3p2--2----5-3-2--3p2--2-2--3p2--2----5-3-2--|

E--------------|
B--------------|
G--3-3--5-5-5--|
D--3-3--5-5-5--|
A--1-1--3-3-3--|
D--------------|

Chorus
E--------------------------------------------------------|
B--------------------------------------------------------|
G--7-7-7-7-7-7--5-5-5--3-3-3--7-7-7-7-7-7--5-5-5--3-3-3--|
D--7-7-7-7-7-7--5-5-5--3-3-3--7-7-7-7-7-7--5-5-5--3-3-3--|
A--5-5-5-5-5-5--3-3-3--1-1-1--5-5-5-5-5-5--3-3-3--1-1-1--|
D--5-5-5-5-5-5--3-3-3--1-1-1--5-5-5-5-5-5--3-3-3--1-1-1--|

E--------------------------------------------------------|
B--------------------------------------------------------|
G--7-7-7-7-7-7--5-5-5--3-3-3--7-7-7-7-7-7--5-5-5--3-3-3--|
D--7-7-7-7-7-7--5-5-5--3-3-3--7-7-7-7-7-7--5-5-5--3-3-3--|
A--5-5-5-5-5-5--3-3-3--1-1-1--5-5-5-5-5-5--3-3-3--1-1-1--|
D--5-5-5-5-5-5--3-3-3--1-1-1--5-5-5-5-5-5--3-3-3--1-1-1--|

Bridge
E-------------------------------------------------------|
B-------------------------------------------------------|
G-------------------------------------------------------|
D-------------------------------------------------------|
A-3p2--2-2--3p2--2----5-3-2--3p2--2-2--3p2--2----5-3-2--|
D-3p2--2-2--3p2--2----5-3-2--3p2--2-2--3p2--2----5-3-2--|

E-------------------------------------------------------|
B-------------------------------------------------------|
G-------------------------------------------------------|
D-------------------------------------------------------|
A-3p2--2-2--3p2--2----5-3-2--3p2--2-2--3p2--2-2--3p2--2-|
D-3p2--2-2--3p2--2----5-3-2--3p2--2-2--3p2--2-2--3p2--2-|

Verse:Play 7 times aswell.
E-------------------------------------------------------|
B-------------------------------------------------------|
G-------------------------------------------------------|
D-------------------------------------------------------|
A-3p2--2-2--3p2--2----5-3-2--3p2--2-2--3p2--2----5-3-2--|
D-3p2--2-2--3p2--2----5-3-2--3p2--2-2--3p2--2----5-3-2--|

E--------------|
B--------------|
G--3-3--5-5-5--|
D--3-3--5-5-5--|
A--1-1--3-3-3--|
D--------------|

Chorus
E--------------------------------------------------------|
B--------------------------------------------------------|
G--7-7-7-7-7-7--5-5-5--3-3-3--7-7-7-7-7-7--5-5-5--3-3-3--|
D--7-7-7-7-7-7--5-5-5--3-3-3--7-7-7-7-7-7--5-5-5--3-3-3--|
A--5-5-5-5-5-5--3-3-3--1-1-1--5-5-5-5-5-5--3-3-3--1-1-1--|
D--5-5-5-5-5-5--3-3-3--1-1-1--5-5-5-5-5-5--3-3-3--1-1-1--|

E--------------------------------------------------------|
B--------------------------------------------------------|
G--7-7-7-7-7-7--5-5-5--3-3-3--7-7-7-7-7-7--5-5-5--3-3-3--|
D--7-7-7-7-7-7--5-5-5--3-3-3--7-7-7-7-7-7--5-5-5--3-3-3--|
A--5-5-5-5-5-5--3-3-3--1-1-1--5-5-5-5-5-5--3-3-3--1-1-1--|
D--5-5-5-5-5-5--3-3-3--1-1-1--5-5-5-5-5-5--3-3-3--1-1-1--|

E--------------------------------------------------------|
B--------------------------------------------------------|
G--7-7-7-7-7-7--5-5-5--3-3-3--7-7-7-7-7-7--5-5-5--3-3-3--|
D--7-7-7-7-7-7--5-5-5--3-3-3--7-7-7-7-7-7--5-5-5--3-3-3--|
A--5-5-5-5-5-5--3-3-3--1-1-1--5-5-5-5-5-5--3-3-3--1-1-1--|
D--5-5-5-5-5-5--3-3-3--1-1-1--5-5-5-5-5-5--3-3-3--1-1-1--|
[ Tab from: http://www.guitartabs.cc/tabs/g/godsmack/speak_tab_ver_2.html ]
E--------------------------------------------------------|
B--------------------------------------------------------|
G--7-7-7-7-7-7--5-5-5--3-3-3--7-7-7-7-7-7--5-5-5--3-3-3--|
D--7-7-7-7-7-7--5-5-5--3-3-3--7-7-7-7-7-7--5-5-5--3-3-3--|
A--5-5-5-5-5-5--3-3-3--1-1-1--5-5-5-5-5-5--3-3-3--1-1-1--|
D--5-5-5-5-5-5--3-3-3--1-1-1--5-5-5-5-5-5--3-3-3--1-1-1--|

Interlude
E----------------------------------|
B-----10---10---10-----8---6---6---|
G--7-----7----7-----5----3---3-----|
D----------------------------------|
A----------------------------------|
D----------------------------------|

Sully doesn't play it live but here's his part
E--------------|
B--------------|
G--7---5---3---|
D--7---5---3---|
A--5---3---1---|
D--------------|

Here's the solo, the other one seemed pretty good and could use work and so ould mine, 
wah.
E--------------------------------------------------------------------|
B-1010101010101010-9-9-9-9-9-9-9-9--11b-13p11-10-8------10-----------|
G-9-9-9-9-9-9-9-9--8-8-8-8-8-8-8-8------------------8-10----8-10-12--|
D-9-9-9-9-9-9-9-9--8-8-8-8-8-8-8-8------------------------8----------|
A--------------------------------------------------------------------|
D--------------------------------------------------------------------|

E--------------------------------------------------------------------|
B-----------------------------------------------------------6h7h9----|
G-12b-14p12-12b-12b-12b-12b--6p7~~-----6p7~~-4-6h7b---6h7h9----------|
D-------------------------------6h8~~~-------------------------------|
A--------------------------------------------------------------------|
D--------------------------------------------------------------------|

E--------------------------------------------------------------------|
B--------------------------------------------------------------------|
G-12b-13p12-12~~--9-12-9--9-11-9----------9-12------12------12-------|
D---------------------------------9h11h12------11p9----11p9----11p9--|
A--------------------------------------------------------------------|
D--------------------------------------------------------------------|

Chorus
E--------------------------------------------------------|
B--------------------------------------------------------|
G--7-7-7-7-7-7--5-5-5--3-3-3--7-7-7-7-7-7--5-5-5--3-3-3--|
D--7-7-7-7-7-7--5-5-5--3-3-3--7-7-7-7-7-7--5-5-5--3-3-3--|
A--5-5-5-5-5-5--3-3-3--1-1-1--5-5-5-5-5-5--3-3-3--1-1-1--|
D--5-5-5-5-5-5--3-3-3--1-1-1--5-5-5-5-5-5--3-3-3--1-1-1--|

E--------------------------------------------------------|
B--------------------------------------------------------|
G--7-7-7-7-7-7--5-5-5--3-3-3--7-7-7-7-7-7--5-5-5--3-3-3--|
D--7-7-7-7-7-7--5-5-5--3-3-3--7-7-7-7-7-7--5-5-5--3-3-3--|
A--5-5-5-5-5-5--3-3-3--1-1-1--5-5-5-5-5-5--3-3-3--1-1-1--|
D--5-5-5-5-5-5--3-3-3--1-1-1--5-5-5-5-5-5--3-3-3--1-1-1--|

E--------------------------------------------------------|
B--------------------------------------------------------|
G--7-7-7-7-7-7--5-5-5--3-3-3--7-7-7-7-7-7--5-5-5--3-3-3--|
D--7-7-7-7-7-7--5-5-5--3-3-3--7-7-7-7-7-7--5-5-5--3-3-3--|
A--5-5-5-5-5-5--3-3-3--1-1-1--5-5-5-5-5-5--3-3-3--1-1-1--|
D--5-5-5-5-5-5--3-3-3--1-1-1--5-5-5-5-5-5--3-3-3--1-1-1--|

E--------------------------------------------------------|
B--------------------------------------------------------|
G--7-7-7-7-7-7--5-5-5--3-3-3--7-7-7-7-7-7--5-5-5--3-3-3--|
D--7-7-7-7-7-7--5-5-5--3-3-3--7-7-7-7-7-7--5-5-5--3-3-3--|
A--5-5-5-5-5-5--3-3-3--1-1-1--5-5-5-5-5-5--3-3-3--1-1-1--|
D--5-5-5-5-5-5--3-3-3--1-1-1--5-5-5-5-5-5--3-3-3--1-1-1--|

Outro:Still got that wierd intro sound in this part too.
E-------------------------------------------------------|
B-------------------------------------------------------|
G-------------------------------------------------------|
D-------------------------------------------------------|
A-3p2--2-2--3p2--2----5-3-2--3p2--2-2--3p2--2----5-3-2--|
D-3p2--2-2--3p2--2----5-3-2--3p2--2-2--3p2--2----5-3-2--|

E-------------------------------------------------------|
B-------------------------------------------------------|
G-------------------------------------------------------|
D-------------------------------------------------------|
A-3p2--2-2--3p2--2----5-3-2--3p2--2-2--3p2--2----5-3-2--|
D-3p2--2-2--3p2--2----5-3-2--3p2--2-2--3p2--2----5-3-2--|

E-------------------------------------------------------|
B-------------------------------------------------------|
G-------------------------------------------------------|
D-------------------------------------------------------|
A-3p2--2-2--3p2--2----5-3-2--3p2--2-2--3p2--2----5-3-2--|
D-3p2--2-2--3p2--2----5-3-2--3p2--2-2--3p2--2----5-3-2--|

E-------------------------------------------------------|
B-------------------------------------------------------|
G-------------------------------------------------------|
D-------------------------------------------------------|
A-3p2--2-2--3p2--2----5-3-2--3p2--2-2--3p2--2----5-3-2--|
D-3p2--2-2--3p2--2----5-3-2--3p2--2-2--3p2--2----5-3-2--|

Here's the guitar 2 part for he end.
E-----------------------------------------|
B-----------------------------------------|
G-7--7--7--8--8--8--10-10-10--14-14-14----|
D-X--X--X--X--X--X--X--X--X---X--X--X-----|
A-5--5--5--6--6--6--8--8--8---12-12-12----|
D-----------------------------------------|

Pretty long but it's easier to read than going back to the top. E-mail me at 
for suggestions.