Godsmack - Someone In London Chords & Tabs

 

Someone In London Chords & Tabs

Godsmack Chords & Tabs

Version: 3 Type: Tab 0 ratings
1 star 2 stars 3 stars 4 stars 5 stars
comments

Someone In London Tab

Band- Godsmack
Song- Someone In London
Album- Godsmack
Tuning- Drop D

Intro/Verse:                          1st time                               
e|-----------------------------------|-------------|         
B|---------------5-------------------|-------------|          
G|------full--------7----------------|-------------|   
D|------6^---3-0------------------6^-|-----0----0--|          
A|----5-----------------------5------|-------------|          
D|--0---------------------0----------|--3-----2----|       
[ Tab from: http://www.guitartabs.cc/tabs/g/godsmack/someone_in_london_tab_ver_3.html ]
  2nd time          
e|-------------------|         
B|-------------------|          
G|-------------------|          
D|------0-----0---0--|                 
A|----3-----2--------|          
D|--3-----2----1-----|
          
          
end chord: Let Ring out          
e|---------|          
B|-----3~--|          
G|-----2~--|          
D|-----0~--|    THEN IT JUMPS INTO "GET UP, GET OUT"          
A|-----0~--|     If you are listening to the cd that is...
D|-----0~--|         
                                

ENJOY!!!
Comments