Godsmack - Someone In London Chords & Tabs

 

Someone In London Chords & Tabs

Godsmack Chords & Tabs

Version: 2 Type: Tab 0 ratings
1 star 2 stars 3 stars 4 stars 5 stars
comments

Someone In London Tab

   
Well folks, this is what I've come up with. To me it sounds pretty accurate if you
figure in that I don't know what kind of equipment they use. If anyone knows, please
e-mail me at ihumandiseasei@aol.com

Tuning: D,A,D,G,B,E


^: Bend

[ Tab from: http://www.guitartabs.cc/tabs/g/godsmack/someone_in_london_tab_ver_2.html ]
E|---------------------------------------------------------------| x7
B|---------------------------------------------------------------|
G|----------------------5----------------------------------------|
D|---------6^(6)-----------7---------------6^(6)-----0-----0-----|
A|------5---------8--5------------------5------------------------|
D|---0-------------------------------0------------3-----2--------|

E|---------------------------------------------------------------------------|
B|---------------------------------------------------------------------------|
G|---------------------5-----------------------------------------------------|
D|---------6^(6)----------7----------------6^(6)--------0--------0------0--0-|
A|------5---------8-5-------------------5------------3--------2------------0-|
D|---0-------------------------------0------------3--------2--------1------0-|


That's about it kiddies. Like I said it sounds right about there. And as you can see,
it's pretty easy, so have fun and enjoy.
Comments