Godsmack - Sick Of Life Chords & Tabs

 

Sick Of Life Chords & Tabs

Godsmack Chords & Tabs

Version: 5 Type: Tab

Sick Of Life Tab

   
Sick Of Life
--------------

song-Sick of Life
band-Godsmack
album-Awake
year-2000
tabbed by-bennyhill64(again)

gtr 1-Tony Rombola(C G C F A D)
gtr 2-Sully Enra(C G C F A D)

tuned one whole step down
w/ drop "D" 

bass arr. for guitar
F|----------------------------------|
C|----------------------------------|
G|----------------------------------|
C|3-0-0-0-5-0-0-8-0-0-0-3-0-0-0-----|

after bass does his thing guitar comes in

(gtr 1)
D|---------------------------------|----------------------------------|
A|---------------------------------|----------------------------------|
F|---------------------------------|----------------------------------|
C|3p0-0-0-5p0-0-8p0-0-0-3p0-0-0----|3p0-0-0-5p0-0-8p0-0-0-3p0-0-0-----|
G|---------------------------------|----------------------------------|
C|---------------------------------|----------------------------------|

(gtr 2)
D|---------------------------------|----------------------------------|
A|---------------------------------|----------------------------------|
F|---------------------------------|----------------------------------|
C|---------------------------------|----------------------------------|
G|---------------------------------|----------------------------------|
C|3p0-0-0-5p0-0-8p0-0-0-3p0-0-0----|3p0-0-0-5p0-0-8p0-0-0-3p0-0-0-----|

(gtrs 1 & 2)
D|---------------------------------|----------------------------------|
A|---------------------------------|----------------------------------|
F|---------------------------------|----------------------------------|
C|---------------------------------|----------------------------------|
G|3p0-0-0-5p0-0-8p0-0-0-3p0-0-0----|3p0-0-0-5p0-0-8p0-----------------|
C|3p0-0-0-5p0-0-8p0-0-0-3p0-0-0----|3p0-0-0-5p0-0-8p0-----------------|

ARGH!!!!!!!!!

(gtrs 1 & 2)
D|---------------------------------|
A|---------------------------------|
F|---------------------------------|
C|---------------------------------| 3x
G|3p0-0-0-5p0-0-8p0-0-0-3p0-0-0----|
C|3p0-0-0-5p0-0-8p0-0-0-3p0-0-0----|

(gtrs 1 & 2)
D|----------------------------------|
A|----------------------------------|
F|-------------------(5-5-5-5)------|
C|----------------------------------|
G|3p0-0-0-5p0-0-8p0-----------------|
C|3p0-0-0-5p0-0-8p0-----------------|

(gtrs 1 & 2)
D|---------------------------------|
A|---------------------------------|
F|---------------------------------|
C|---------------------------------| 4x
G|3p0-0-0-5p0-0-8p0-0-0-3p0-0-0----|
C|3p0-0-0-5p0-0-8p0-0-0-3p0-0-0----|

verse(gtrs 1 & 2)
D|---------------------------------------------------------|
A|---------------------------------------------------------|
F|---------------------------------------------------------|
C|---------------------------------------------------------|
G|3p0-0-0-3p0-0-5----3p0-0-0-5p0-0-8p0-0-0-3p0-0-0---------|
C|3p0-0-0-3p0-0-5----3p0-0-0-5p0-0-8p0-0-0-3p0-0-0---------| 
  PM----------------------------------------------|
paraylzed 
nothings getting through to me
hypnotized
from all of my surroundings

D|------------------------------------------------------|
A|8-8-8-8-----8-8-8-8-----------------------------------|
F|8-8-8-8-----8-8-8-8-----------------------------------|
C|8-8-8-8-----8-8-8-8-----------------------------------|
G|6-6-6-6-----6-6-6-6-3p0-0-0-8p0-0-0-3p0-0-0-----------|
C|--------------------3p0-0-0-8p0-0-0-3p0-0-0-----------|
                      PM---------------------|
i want to be
something i could never be
i want to say
the things that i could never say

pre-chorus
D|---------------------------|
A|---------------------------|
F|---------------------------|
C|---------------------------|
G|0-5-5/6-6/8-8\6-6-6\5-5-5--|
C|0-5-5/6-6/8-8\6-6-6\5-5-5--|
yeah i'm gonna do it again
i'm gonna do it again
i'm gonna do it again

chorus(gtrs 1 & 2)
D|---------------------------------|
A|---------------------------------|
F|---------------------------------|
C|---------------------------------| 
G|3p0-0-0-5p0-0-8p0-0-0-3p0-0-0----|
C|3p0-0-0-5p0-0-8p0-0-0-3p0-0-0----|
sick of my life
i'm tired of everything
in my life

verse(gtrs 1 & 2)
D|---------------------------------------------------------|
A|---------------------------------------------------------|
F|---------------------------------------------------------|
C|---------------------------------------------------------|
G|3p0-0-0-3p0-0-5----3p0-0-0-5p0-0-8p0-0-0-3p0-0-0---------|
C|3p0-0-0-3p0-0-5----3p0-0-0-5p0-0-8p0-0-0-3p0-0-0---------| 
  PM----------------------------------------------|
dragged down
rubbing my face in the ground
no time
for the undecided
[ Tab from: http://www.guitartabs.cc/tabs/g/godsmack/sick_of_life_tab_ver_5.html ]
D|------------------------------------------------------|
A|8-8-8-8-----8-8-8-8-----------------------------------|
F|8-8-8-8-----8-8-8-8-----------------------------------|
C|8-8-8-8-----8-8-8-8-----------------------------------|
G|6-6-6-6-----6-6-6-6-3p0-0-0-8p0-0-0-3p0-0-0-----------|
C|--------------------3p0-0-0-8p0-0-0-3p0-0-0-----------|
                      PM---------------------|
i want to know
why i've always felt alone
i want to love
why am i untouchable

pre-chorus
D|---------------------------|
A|---------------------------|
F|---------------------------|
C|---------------------------|
G|0-5-5/6-6/8-8\6-6-6\5-5-5--|
C|0-5-5/6-6/8-8\6-6-6\5-5-5--|
yeah i'm gonna do it again
i'm gonna do it again
i'm gonna do it again

chorus(gtrs 1 & 2)
D|---------------------------------|
A|---------------------------------|
F|---------------------------------|
C|---------------------------------| 
G|3p0-0-0-5p0-0-8p0-0-0-3p0-0-0----|
C|3p0-0-0-5p0-0-8p0-0-0-3p0-0-0----|
sick of my life
i'm tired of everything
in my life

(gtrs 1 & 2)
D|----------------------------------|
A|----------------------------------|
F|-------------------(5-5-5-5)------|
C|----------------------------------|
G|3p0-0-0-5p0-0-8p0-----------------|
C|3p0-0-0-5p0-0-8p0-----------------|
i never wanted to be

chorus(gtrs 1 & 2)
D|---------------------------------|
A|---------------------------------|
F|---------------------------------|
C|---------------------------------| 
G|3p0-0-0-5p0-0-8p0-0-0-3p0-0-0----|
C|3p0-0-0-5p0-0-8p0-0-0-3p0-0-0----|
sick of my life
i'm tired of everything
in my life

interlude(gtrs 1 & 2)
D|-----------------|
A|-----------------|
F|8-8-8-8----------|
C|7-7-7-7----------| 3x then
G|6-6-6-6----------|
C|-----------------|

(gtr 1)
D|------------------------------|
A|------------------------------|
F|8-8-8-8-8-8-8-8-8-8-8-8-8-8---|
C|------------------------------|
G|6-6-6-6-6-6-6-6-6-6-6-6-6-6---|
C|------------------------------|

(gtr 2)
D|------------------------------|
A|------------------------------|
F|8-8-8-8-----------------------|
C|7-7-7-7-----------------------| 
G|6-6-6-6-----------------------|
C|------------------------------|

(gtr 1)
D|------------------------------|
A|------------------------------|
F|8-8-8-8-8-8-8-8-8-8-8-8-8-8---|
C|------------------------------|
G|6-6-6-6-6-6-6-6-6-6-6-6-6-6---|
C|------------------------------|

(gtr 2)
D|------------------------------|
A|------------------------------|
F|8-8-8-8-----------------------|
C|7-7-7-7-----------------------| 
G|6-6-6-6-----------------------|
C|------------------------------|

(gtr 1)
D|------------------------------|
A|------------------------------|
F|8-8-8-8-8-8-8-8-8-8-8-8-8-8---|
C|------------------------------|
G|6-6-6-6-6-6-6-6-6-6-6-6-6-6---|
C|------------------------------|

(gtr 2)
D|------------------------------|
A|------------------------------|
F|8-8-8-8-8-8-8-8-8-8-8-8-8-8---|
C|7-7-7-7-7-7-7-7-7-7-7-7-7-7---| 
G|6-6-6-6-6-6-6-6-6-6-6-6-6-6---|
C|------------------------------|

RRRRRAAAAAAAAGGGGGGGGHHHHHHHH!!!!!!!!!

i don't know the solo but heres the rythm
if i anyone knows e-mail me.

(gtr 2)
D|---------------------------|
A|---------------------------|
F|---------------------------|
C|---------------------------|3x
G|0-5-5/6-6/8-8\6-6-6\5-5-5--|
C|0-5-5/6-6/8-8\6-6-6\5-5-5--|

(gtr 2)
D|---------------------------------|
A|---------------------------------|
F|---------------------------------|
C|---------------------------------|4x 
G|3p0-0-0-5p0-0-8p0-0-0-3p0-0-0----|
C|3p0-0-0-5p0-0-8p0-0-0-3p0-0-0----|

chorus(gtrs 1 & 2)
D|---------------------------------|
A|---------------------------------|
F|---------------------------------|
C|---------------------------------| 
G|3p0-0-0-5p0-0-8p0-0-0-3p0-0-0----|
C|3p0-0-0-5p0-0-8p0-0-0-3p0-0-0----|
sick of my life
i'm tired of everything
in my life

(gtrs 1 & 2)
D|----------------------------------|
A|----------------------------------|
F|-------------------(5-5-5-5)------|
C|----------------------------------|
G|3p0-0-0-5p0-0-8p0-----------------|
C|3p0-0-0-5p0-0-8p0-----------------|
i never wanted to be

chorus(gtrs 1 & 2)
D|---------------------------------|
A|---------------------------------|
F|---------------------------------|
C|---------------------------------| 
G|3p0-0-0-5p0-0-8p0-0-0-3p0-0-0----|
C|3p0-0-0-5p0-0-8p0-0-0-3p0-0-0----|
sick of my life
i'm tired of everything
in my life

(gtrs 1 & 2)
D|---------------------------------------------------------|
A|---------------------------------------------------------|
F|---------------------------------------------------------|
C|---------------------------------------------------------|
G|3p0-0-0-3p0-0-5----3p0-0-0-5p0-0-8p0-0-0-3p0-0-0---------|
C|3p0-0-0-3p0-0-5----3p0-0-0-5p0-0-8p0-0-0-3p0-0-0---------| 
  PM----------------------------------------------|

D|---------------------------|
A|---------------------------|
F|---------------------------|
C|---------------------------|
G|3p0-0-0-3p0-0-5------------|
C|3p0-0-0-3p0-0-5------------|
  PM-------------|


tablature legend-
-------------------

p-pull off
PM-palm mute
()-everything between the marks are natural harmonics
/-slide up
\-slide down

thats all sorry bout the solo oh well
please rate i beg u ENJOY!!!!!!!!