Godsmack - Sick Of Life Chords & Tabs

 

Sick Of Life Chords & Tabs

Godsmack Chords & Tabs

Version: 3 Type: Tab 0 ratings
1 star 2 stars 3 stars 4 stars 5 stars
comments

Sick Of Life Tab

Band- Godsmack
Song- Sick Of Life
Album- Awake
Tuning- Drop C

Intro: (after bass)
Guitar 1: x3                          then:
D----------------------------------|-----------------------|
A----------------------------------|-----------------------|
F----------------------------------|-----------------------|
C---3p0-0-0-5p0-0-8p0---0-3p0-0-0--|--3p0-0-0-5p0-0-8p0-0--|
G----------------------------------|-----------------------|
C----------------------------------|-----------------------|

Guitar 2: x3                            then:
D----------------------------------|-----------------------|
A----------------------------------|-----------------------|
F----------------------------------|-----------------------|
C----------------------------------|-----------------------|
G----------------------------------|-----------------------|
C---3p0-0-0-5p0-0-8p0---0-3p0-0-0--|--3p0-0-0-5p0-0-8p0-0--|
					"ARGHHH!!!!!"


Then
Both guitars:
	(part 1) x3		       Then:
D----------------------------------|------------------------------|
A----------------------------------|---------------------*-*-*-*--|
F----------------------------------|---------------------7-5-5-5--|
C----------------------------------|------------------------------|
G---3p0-0-0-5p0-0-8p0---0-3p0-0-0--|--3p0-0-0-5p0-0-8p0-----------|
C---3p0-0-0-5p0-0-8p0---0-3p0-0-0--|--3p0-0-0-5p0-0-8p0-----------|


Repeat part 1
And then play this:
D------------------------|
A------------------------|
F------------------------|
C------------------------|
G---3p0-0-0-5p0-0-8p0-0--|
C---3p0-0-0-5p0-0-8p0-0--|


Verse:
 Part 1:                 Part 2:
D--------------------|----------------------------------|
A--------------------|----------------------------------|
F--------------------|----------------------------------|
C--------------------|----------------------------------|
G---3p0-0-0-5p0-0-0--|---3p0-0-0-5p0-0-8p0---0-3p0-0-0--|
C---3p0-0-0-5p0-0-0--|---3p0-0-0-5p0-0-8p0---0-3p0-0-0--|


Repeat part 1 and 2 (verse)


Part 3:			  Part 4:
D----------------------|-----------------------------------|
A---8-8-8-8------------|---8-8-8-8-------------------------|
F---8-8-8-8------------|---8-8-8-8-------------------------|
C---8-8-8-8------------|---8-8-8-8-------------------------|
G---6-6-6-6--3p0-0-0---|---6-6-6-6--3-0-0-8p0---0-3p0-0-0--|
C------------3p0-0-0---|------------3-0-0-8p0---0-3p0-0-0--|


Repeat Part 3 and 4

[ Tab from: http://www.guitartabs.cc/tabs/g/godsmack/sick_of_life_tab_ver_3.html ]
Prechorus:
      x3				  Then:
D--------------------------------------|--------------------------|
A--------------------------------------|--------------------------|
F--------------------------------------|--------------------------|
C---------L------L------L------L-------|--------L------L----L-----|
G---0-5--5/6-6--6/8-8--8\6-6--6\5-5-5--|--0-5--5/6-6--6/8--8\6-6--|
C---0-5--5/6-6--6/8-8--8\6-6--6\5-5-5--|--0-5--5/6-6--6/8--8\6-6--|


Chorus: chorus is the intro part where it says both guitars,
but it does not play the riff with the harmonics, but the riff after that


Repeat verse riffs

Prechorus

2 chorus:  play with riff that includes harmonics


Interlude:
Guitar 1:
D------------|
A------------|
F---8-8-8-8--|>Play 4 times then its mixed with 2nd guitar
C---8-8-8-8--|
G---6-6-6-6--|
C------------|

Guitar 2:
play these riffs for awhile (its kind of like the interlude to Keep Away)
D-----------------------------------|-----------------------------------|
A-----------------------------------|-----------------------------------|
F---8-8-8-8-8-8-8-8---8---8-8-8-8-8-|---8-8-8-8-8-8-8-8---8---8-8-8-8-8-|
C---8-8-8-8-------------------------|-----------------------------------|
G---6-6-6-6-6-6-6-6---6---6-6-6-6-6-|---6-6-6-6-6-6-6-6---6---6-6-6-6-6-|
C-----------------------------------|-----------------------------------|


Solo:
D---------------------------------------------------------------------------------|
A---T-----T-----T------T-----T---T---T-----T---T---T---T---T---T---T---T--T-------|
F---0-----5-----0------2-----3---4---5----12---5---4---3---5---3---5---4--3----5^-|
C----------------------*-----*---*---*-----*---*---*---*---*---*---*---*--*-------|
G---------------------------------------------------------------------------------|
C---------------------------------------------------------------------------------|


D-------------------------------
A---(hold bend and strike same note)
F---5^---^---^-^-p3--5-5-3------|
C-------------------------------|
G-------------------------------|
C-------------------------------|

D---8^------8-------------------------------------------------------8^-|
A----------------8^---6---6-8-8^p6--6---6^------6----------6--8-6------|
F-----------------------6----------7--7-----7-5---7----5-7---7---7-----|
C----------------------------------------------------------------------|
G----------------------------------------------------------------------|
C----------------------------------------------------------------------|


repeat chorus

ENJOY!!!!
Comments