Godsmack - Shine Down Chords & Tabs

 

Shine Down Chords & Tabs

Godsmack Chords & Tabs

Version: 1 Type: Tab

Shine Down Tab

Band- Godsmack
Song- Shine Down
Album- IV (2006)
Tuning- CGCFAD(Not sure about this tuning, but this is how I learned it.)

Notes:Most of the 'solo' parts in this song are done with a harmonica(the intro and in 
main solo).The only real guitar solo is at the very end and fades into the next song.

Intro(After the harmonica intro)
|-----------------------------------------------------------|
|-----------------------------------------------------------|
|-5p0--------10-10-10-10-9-9-9-5p0--------10-10-10-10-7-7-7-|
|-----5/7-7--x--x--x--x--x-x-x-----5/7-7--x--x--x--x--x-x-x-|
|---------0--8--8--8--8--7-7-7---------0--8--8--8--8--5-5-5-|
|-----------------------------------------------------------|

|-------------------------------------------------------|
|-------------------------------------------------------|
|-5p0--------10-10-10-10-9-9-9-5p0--------5-5-5-5-7-7-7-|
|-----5/7-7--x--x--x--x--x-x-x-----5/7-7--5-5-5-5-7-7-7-|
|---------0--8--8--8--8--7-7-7---------0--3-3-3-3-5-5-5-|
|-------------------------------------------------------|

Fill
|---------|
|---------|
|---------|
|-7-8-7-0-|
|-7-8-7-0-|
|-7-8-7-0-|
[ Tab from: http://www.guitartabs.cc/tabs/g/godsmack/shine_down_tab.html ]
Verse
|---------------------------------------------------------------|
|---------------------------------------------------------------|
|---------------------------------------------------------------|
|-7-7-7-7-x-7-7-7-x-7-7-x-7-7-7-7-x-7-7-7-8-8-8-8-8-8-8-|-------|
|-7-7-7-7-x-7-7-7-x-7-7-x-7-7-7-7-x-7-7-7-8-8-8-8-8-8-8-|    ---|
|-7-7-7-7-x-7-7-7-x-7-7-x-7-7-7-7-x-7-7-7-8-8-8-8-8-8-8-|    ---|
                                                              |-x2
|-------------------------------------------------------|    ---|
|-------------------------------------------------------|    ---|
|-------------------------------------------------------|-------|
|-7-7-7-7-x-7-7-7-x-7-7-x-7-7-7-7-x-7-7-7-5-5-5-5-5-5-5---------|
|-7-7-7-7-x-7-7-7-x-7-7-x-7-7-7-7-x-7-7-7-5-5-5-5-5-5-5---------|
|-7-7-7-7-x-7-7-7-x-7-7-x-7-7-7-7-x-7-7-7-5-5-5-5-5-5-5---------|

Pre-Chorus
|-----------------------------|
|-----------------------------|
|-5-5-5~-7-7-7~-5-5-5~-7-7-7~-|
|-3-3-3~-5-5-5~-3-3-3~-5-5-5~-|
|-3-3-3~-5-5-5~-3-3-3~-5-5-5~-|
|-3-3-3~-5-5-5~-3-3-3~-5-5-5~-|

Chorus-Same as Intro

Play Fill

Play Verse

Play Pre-Chorus a few extra times this time.

Play Chorus

Bridge(Played under harmonica solo)
|-------------------------------|
|-------------------------------|
|-------------------------------|
|-2-2-2-2-2-3-3-3-3-3-5-5-5-5-5-|
|-2-2-2-2-2-3-3-3-3-3-5-5-5-5-5-|
|-2-2-2-2-2-3-3-3-3-3-5-5-5-5-5-|

Bridge Ending
|--------------------|
|--------------------|
|--------------------|
|-2-2-2-2-2-3-3--5-5-|
|-2-2-2-2-2-3-3--5-5-|
|-2-2-2-2-2-3-3--5-5-|

Play Chorus

Ending Solo w/wah
|-----------------------------------------------------|
|-----------------------------------------------------|
|-12^-14--12-14--9--14--------------------------------|
|----------------------12--11------------------11-----|
|------------------------------12--12--11--12------12-|
|-----------------------------------------------------|

|-----------------------------------------|
|-----------------------------------------|
|-----------------------------------------|
|-------11----11-12-11----11----11----11^-|
|-11-12----12----------12----12----12-----|
|-----------------------------------------|

More to come soon, for now, enjoy!