Godsmack - Serenity Chords & Tabs

 

Serenity Chords & Tabs

Godsmack Chords & Tabs

Version: 5 Type: Tab 0 ratings
1 star 2 stars 3 stars 4 stars 5 stars
comments

Serenity Tab

   
Band- Godsmack
Song- Serenity
Album- Faceless

  D5                   F5                   Ab5                  G5
      0 0 0 x x x          3 3 x x x x          6 6 x x x x          5 5 x x x x

          Bb5                  C5                  Dsus2               Absus2
      8 8 x x x x         10 10 x x x x         0 0 0 2 3 x          6 6 8 7 x x

Gtr I (D A D G B E) - 'Tony Rombola 12 String Acoustic'
Gtr II (D A D G B E) - 'Tony Rombola 6 String Acoustic'
Gtr III (D A D G B E) - 'Tony Rombola Electric'
Gtr IV (D A D G B E) - 'Synth'
Gtr V (D A D G B E) - 'Coupled with Gtr 1 to simulate 12 string acoustic'

 Intro
  Q=108
  D5                 F5    Ab5   F5    D5                 F5    Ab5   F5
 4/4
  Gtrs I, V
  Q  E E +E  E E E   E E E E E E E E   Q  E E +E  E E E   E E E E E E E E
|------------------|-----------------|------------------|-----------------|
|------------------|-----------------|------------------|-----------------|
|------------------|-----------------|------------------|-----------------|
|----0-------0---0-|---0-----0-----0-|----0-------0---0-|---0-----0-----0-|
|------------------|-----------------|------------------|-----------------|
|-0----0-(0)---0---|-3---3-6---6-3---|-0----0-(0)---0---|-3---3-6---6-3---|


  D5                 F5    Ab5   F5    D5                 F5    Ab5
  Q  E E +E  E E E   E E E E E E E E   Q  E E +E  E E E   E E E E +H
|------------------|-----------------|------------------|----------------|
|------------------|-----------------|------------------|----------------|
|------------------|-----------------|------------------|----------------|
|----0-------0---0-|---0-----0-----0-|----0-------0---0-|---0------------|
|------------------|-----------------|------------------|----------------|
|-0----0-(0)---0---|-3---3-6---6-3---|-0----0-(0)---0---|-3---3-6-(6)----|


  D5                 F5      Ab5     F5
  Gtrs I, V
  Q  E E +E  E E E    E  E E E  E  E  E E
|------------------|----------------------|
|------------------|----------------------|
|------------------|----------------------|
|----0-------0---0-|-----0------0-------0-|
|------------------|----------------------|
|-0----0-(0)---0---|--3----3-6-----6--3---|
|
| Gtr IV
| W                  +E  Q   E +Q     Q
|------------------|----------------------|
|------------------|----------------------|
|-7----------------|-(7)-5---8-(8)---10---|
|------------------|----------------------|
|------------------|----------------------|
|------------------|----------------------|


  D5                 F5      Ab5     F5
  Q  E E +E  E E E    E  E E E  E  E E E
|------------------|----------------------|
|------------------|----------------------|
|------------------|----------------------|
|----0-------0---0-|-----0------0------0--|
|------------------|----------------------|
|-0----0-(0)---0---|--3----3-6-----6-3----|
|
| W                  +E  Q   E +Q    Q
|------------------|----------------------|
|------------------|----------------------|
|-7----------------|-(7)-5---8-(8)---5----|
|------------------|----------------------|
|------------------|----------------------|
|------------------|----------------------|


  D5                 F5      Ab5     F5
  Q  E E +E  E E E    E  E E E  E  E  E E
|------------------|----------------------|
|------------------|----------------------|
|------------------|----------------------|
|----0-------0---0-|-----0------0-------0-|
|------------------|----------------------|
|-0----0-(0)---0---|--3----3-6-----6--3---|
|
| W                  +E  Q   E +Q     Q
|------------------|----------------------|
|------------------|----------------------|
|-7----------------|-(7)-5---8-(8)---10---|
|------------------|----------------------|
|------------------|----------------------|
|------------------|----------------------|


  D5                 F5      Ab5
  Q  E E +E  E E E    E  E E E +H
|------------------|------------------||
|------------------|------------------||
|------------------|------------------||
|----0-------0---0-|-----0------------||
|------------------|------------------||
|-0----0-(0)---0---|--3----3-6-(6)----||
|
| W                  +E  Q   E +H
|------------------|------------------||
|------------------|------------------||
|-7----------------|-(7)-5---8-(8)----||
|------------------|------------------||
|------------------|------------------||
|------------------|------------------||


   Verse
    D5                 F5    Ab5   F5    D5                 F5    Ab5   F5
    Gtrs I, V
    Q  E E +E  E E E   E E E E E E E E   Q  E E +E  E E E   E E E E E E E E
||-------------------|-----------------|------------------|-----------------|
||o------------------|-----------------|------------------|-----------------|
||-------------------|-----------------|------------------|-----------------|
||-----0-------0---0-|---0-----0-----0-|----0-------0---0-|---0-----0-----0-|
||o------------------|-----------------|------------------|-----------------|
||--0----0-(0)---0---|-3---3-6---6-3---|-0----0-(0)---0---|-3---3-6---6-3---|


  D5                 F5    Ab5   F5    D5                 F5    Ab5   F5
  Q  E E +E  E E E   E E E E E E E E   Q  E E +E  E E E   E E E E E E E E
|------------------|-----------------|------------------|------------------|
|------------------|-----------------|------------------|------------------|
|------------------|-----------------|------------------|------------------|
|----0-------0---0-|---0-----0-----0-|----0-------0---0-|---0-----0-----0--|
|------------------|-----------------|------------------|------------------|
|-0----0-(0)---0---|-3---3-6---6-3---|-0----0-(0)---0---|-3---3-6---6-3----|


  D5                 F5    Ab5   F5    D5                 F5    Ab5   F5
  Q  E E +E  E E E   E E E E E E E E   Q  E E +E  E E E   E E E E E E E E
|------------------|-----------------|------------------|------------------|
|------------------|-----------------|------------------|------------------|
|------------------|-----------------|------------------|------------------|
|----0-------0---0-|---0-----0-----0-|----0-------0---0-|---0-----0-----0--|
|------------------|-----------------|------------------|------------------|
|-0----0-(0)---0---|-3---3-6---6-3---|-0----0-(0)---0---|-3---3-6---6-3----|


  D5                 F5    Ab5   F5    D5                 F5    Ab5   F5
  Q  E E +E  E E E   E E E E E E E E   Q  E E +E  E E E   E E E E E E E E
|------------------|-----------------|------------------|------------------||
|------------------|-----------------|------------------|------------------||
|------------------|-----------------|------------------|------------------||
|----0-------0---0-|---0-----0-----0-|----0-------0---0-|---0-----0-----0--||
|------------------|-----------------|------------------|------------------||
|-0----0-(0)---0---|-3---3-6---6-3---|-0----0-(0)---0---|-3---3-6---6-3----||


 Pre Chorus
  G5                 Bb5   Ab5   F5    G5                  Bb5   Ab5   F5
  Gtrs I, V
  E E E E +E  E Q    E E E E E E E E   E E E E +E  E Q     E E E E E E E E
|------------------|-----------------|-------------------|------------------|
|------------------|-----------------|-------------------|------------------|
|-------7-(7)------|-----------------|-------------------|------------------|
|-----5-------5----|-----------6---3-|-----5-------5-----|-----------6---3--|
|---5-----------5--|---8-----6-------|---5---5-(5)---5---|---8-----6--------|
|-5----------------|-8---8-6-----3---|-5-----------------|-8---8-6-----3----|
|
| Gtr II
| E E E E +E  E Q    E E E E E E E E   E E E E +E  Q   E   E E E E E E E E
|------------------|-----------------|-----3-------3-----|-----6-----4---1--|
|------------------|-----------------|---3---3-(3)-------|---6---6-4---1----|
|-------7-(7)------|-----------------|-------------------|------------------|
|-----5-------5----|-----------6---3-|-------------------|------------------|
|---5-----------5--|---8-----6-------|-------------------|------------------|
|-5----------------|-8---8-6-----3---|-------------------|------------------|


  G5                  Bb5   Ab5   F5
  E E E E +E  E Q     E E E E E E E E
|-------------------|-----------------|
|-------------------|-----------------|
|-------------------|-----------------|
|-----5-------5-----|-----------6---3-|
|---5---5-(5)---5---|---8-----6-------|
|-5-----------------|-8---8-6-----3---|
|
| E E E E +E  Q   E   E E E E E E E E
|-----3-------3-----|-----6-----4---1-|
|---3---3-(3)-------|---6---6-4---1---|
|-------------------|-----------------|
|-------------------|-----------------|
|-------------------|-----------------|
|-------------------|-----------------|


  G5                  Bb5   C5       Ab5
  E E E E +E  E Q     E E E  E  E  E E E
|-------------------|---------------------||
|-------------------|---------------------||
|-------------------|---------------------||
|-----5-------5-----|---8------10------6--||
|---5---5-(5)---5---|---------------------||
|-5-----------------|-8---8-10----10-6----||
|
| E E E E +E  Q   E   E E E  E  E  E E E
|-----3-------3-----|---6-------8------4--||
|---3---3-(3)-------|-6---6--8-----8-4----||
|-------------------|---------------------||
|-------------------|---------------------||
|-------------------|---------------------||
|-------------------|---------------------||


 Chorus
  $
  D5                 F5      Ab5     F5
  Gtrs I, V
  Q  E E +E  E E E    E  E E E  E  E  E E
|------------------|----------------------|
|------------------|----------------------|
|------------------|----------------------|
|----0-------0---0-|-----0------0-------0-|
|------------------|----------------------|
|-0----0-(0)---0---|--3----3-6-----6--3---|
|
| Gtr IV
| W                  +E  Q   E +Q     Q
|------------------|----------------------|
|------------------|----------------------|
|-7----------------|-(7)-5---8-(8)---10---|
|------------------|----------------------|
|------------------|----------------------|
|------------------|----------------------|

[ Tab from: http://www.guitartabs.cc/tabs/g/godsmack/serenity_tab_ver_5.html ]
  D5                 F5      Ab5     F5
  Q  E E +E  E E E    E  E E E  E  E E E
|------------------|----------------------|
|------------------|----------------------|
|------------------|----------------------|
|----0-------0---0-|-----0------0------0--|
|------------------|----------------------|
|-0----0-(0)---0---|--3----3-6-----6-3----|
|
| W                  +E  Q   E +Q    Q
|------------------|----------------------|
|------------------|----------------------|
|-7----------------|-(7)-5---8-(8)---5----|
|------------------|----------------------|
|------------------|----------------------|
|------------------|----------------------|


  D5                 F5      Ab5     F5
  Q  E E +E  E E E    E  E E E  E  E  E E
|------------------|----------------------|
|------------------|----------------------|
|------------------|----------------------|
|----0-------0---0-|-----0------0-------0-|
|------------------|----------------------|
|-0----0-(0)---0---|--3----3-6-----6--3---|
|
| W                  +E  Q   E +Q     Q
|------------------|----------------------|
|------------------|----------------------|
|-7----------------|-(7)-5---8-(8)---10---|
|------------------|----------------------|
|------------------|----------------------|
|------------------|----------------------|


          To Coda
  D5                 F5      Ab5
  Q  E E +E  E E E    E  E E E +H
|------------------|------------------||
|------------------|------------------||
|------------------|------------------||
|----0-------0---0-|-----0------------||
|------------------|------------------||
|-0----0-(0)---0---|--3----3-6-(6)----||
|
| W                  +E  Q   E +H
|------------------|------------------||
|------------------|------------------||
|-7----------------|-(7)-5---8-(8)----||
|------------------|------------------||
|------------------|------------------||
|------------------|------------------||


 Interlude
  1.
  D5                 F5      Ab5     F5
  Q  E E +E  E E E    E  E E E  E  E  E E
|------------------|----------------------|
|------------------|----------------------|
|------------------|----------------------|
|----0-------0---0-|-----0------0-------0-|
|------------------|----------------------|
|-0----0-(0)---0---|--3----3-6-----6--3---|
|
| W                  +E  Q   E +Q     Q
|------------------|----------------------|
|------------------|----------------------|
|-7----------------|-(7)-5---8-(8)---10---|
|------------------|----------------------|
|------------------|----------------------|
|------------------|----------------------|


  D5                 F5      Ab5     F5
  Q  E E +E  E E E    E  E E E  E  E E E
|------------------|----------------------|
|------------------|----------------------|
|------------------|----------------------|
|----0-------0---0-|-----0------0------0--|
|------------------|----------------------|
|-0----0-(0)---0---|--3----3-6-----6-3----|
|
| W                  +E  Q   E +Q    Q
|------------------|----------------------|
|------------------|----------------------|
|-7----------------|-(7)-5---8-(8)---5----|
|------------------|----------------------|
|------------------|----------------------|
|------------------|----------------------|


  D5                 F5      Ab5     F5
  Q  E E +E  E E E    E  E E E  E  E  E E
|------------------|----------------------|
|------------------|----------------------|
|------------------|----------------------|
|----0-------0---0-|-----0------0-------0-|
|------------------|----------------------|
|-0----0-(0)---0---|--3----3-6-----6--3---|
|
| W                  +E  Q   E +Q     Q
|------------------|----------------------|
|------------------|----------------------|
|-7----------------|-(7)-5---8-(8)---10---|
|------------------|----------------------|
|------------------|----------------------|
|------------------|----------------------|


  D5                 F5      Ab5
  Q  E E +E  E E E    E  E E E +H
|------------------|-------------------||
|------------------|------------------o||
|------------------|-------------------||
|----0-------0---0-|-----0-------------||
|------------------|------------------o||
|-0----0-(0)---0---|--3----3-6-(6)-----||
|
| W                  +E  Q   E +H
|------------------|-------------------||
|------------------|------------------o||
|-7----------------|-(7)-5---8-(8)-----||
|------------------|-------------------||
|------------------|------------------o||
|------------------|-------------------||


    2.
    Dsus2
    Gtrs I, V
     E E E E +E  Q  E   +E  E E E E E  E  E
||---------0-(0)------|-----------0---------|
||o----3---------3----|-------3-----3-------|
||-------2----------2-|-(2)-----2------2----|
||---0----------------|-----0-------------0-|
||o-------------------|---------------------|
||--------------------|---------------------|
|
|   Gtr III
|    W                  +H.           +E  E
||--------------------|---------------------|
||o-^3----------------|-(3)-----------(3)---|
||--^2----------------|-(2)-----------(2)---|
||--^0----------------|-(0)-----------(0)---|
||o-^0----------------|-(0)-----------(0)---|
||--^0----------------|-(0)-----------(0)-0-|


  Absus2
  E E E E +E  Q   E   +E  E E E E E Q
|-------------------|--------------------||
|-------------------|-------------------o||
|-------7-(7)-------|-----------7--------||
|-----6-------8---6-|-(6)---6-----8-6----||
|---6---------------|-----6---6---------o||
|-6-----------------|--------------------||
|
| PM----------------------------------|
| E E E E  E  E E E    E  E E E E E E E
|-------------------|--------------------||
|-------------------|-------------------o||
|-------------------|--------------------||
|-6-6-6-6--6--6-6-6-|--6--6-6-6-6-6-6-6--||
|-6-6-6-6--6--6-6-6-|--6--6-6-6-6-6-6-6-o||
|-6-6-6-6--6--6-6-6-|--6--6-6-6-6-6-6-6--||


    Dsus2
    E E E E +E  Q  E   +E  E E E E E  E  E
||--------0-(0)------|-----------0---------|
||o---3---------3----|-------3-----3-------|
||------2----------2-|-(2)-----2------2----|
||--0----------------|-----0-------------0-|
||o------------------|---------------------|
||-------------------|---------------------|
|
|   W                   H.           +E  E
||-------------------|--0------------(0)---|
||o------------------|--3------------(3)---|
||-------------------|--2------------(2)---|
||-------------------|--0------------(0)---|
||o------------------|---------------------|
||--0----------------|-------------------0-|


 1.
  Absus2
  E E E E +E  Q  E   +E  E E E E E Q
|------------------|-------------------||
|------------------|------------------o||
|-------7-(7)------|-----------7-------||
|-----6-------8--6-|-(6)---6-----8-6---||
|---6--------------|-----6---6--------o||
|-6----------------|-------------------||
|
| W                  +W
|------------------|-------------------||
|-3----------------|-(3)--------------o||
|-3----------------|-(3)---------------||
|------------------|-------------------||
|------------------|------------------o||
|------------------|-------------------||


                                              Outro
  2.
      D.S. al Coda          &
  Ab5                       F5    Ab5   F5     D5
   W          +W            E E E E E E E E    Q  E E +E  E E E
|-----------|------------||-----------------||-------------------|
|-----------|------------||-----------------||-------------------|
|-----------|------------||-----------------||-------------------|
|-^6--------|-(6)--------||---0-----0-----0-||----0-------0---0--|
|-^6--------|-(6)--------||-----------------||-------------------|
|-^6--------|-(6)--------||-3---3-6---6-3---||-0----0-(0)---0----|
|
|                                              Gtr IV
|  W          +W            W                  W
|-----------|------------||-----------------||-------------------|
|-----------|------------||-----------------||-------------------|
|-----------|------------||-----------------||-7-----------------|
|-^6--------|-(6)--------||-----------------||-------------------|
|-^6--------|-(6)--------||-----------------||-------------------|
|-^6--------|-(6)--------||-----------------||-------------------|


  F5      Ab5     F5     D5
  Gtrs I, V
   E  E E E  E  E  E E   Q  E E +E  E E E
|----------------------|------------------|
|----------------------|------------------|
|----------------------|------------------|
|-----0------0-------0-|----0-------0---0-|
|----------------------|------------------|
|--3----3-6-----6--3---|-0----0-(0)---0---|
|
| +E  Q   E +Q     Q     W
|----------------------|------------------|
|----------------------|------------------|
|-(7)-5---8-(8)---10---|-7----------------|
|----------------------|------------------|
|----------------------|------------------|
|----------------------|------------------|


  F5      Ab5     F5    D5
   E  E E E  E  E E E   Q  E E +E  E E E
|---------------------|-------------------|
|---------------------|-------------------|
|---------------------|-------------------|
|-----0------0------0-|----0-------0---0--|
|---------------------|-------------------|
|--3----3-6-----6-3---|-0----0-(0)---0----|
|
| +E  Q   E +Q    Q     W
|---------------------|-------------------|
|---------------------|-------------------|
|-(7)-5---8-(8)---5---|-7-----------------|
|---------------------|-------------------|
|---------------------|-------------------|
|---------------------|-------------------|


  F5      Ab5     F5     D5                 F5      Ab5        Dsus2
  Gtrs I, V
   E  E E E  E  E  E E   Q  E E +E  E E E    E  E E E +H        W
|----------------------|------------------|------------------|-------*|
|----------------------|------------------|------------------|-^3----*|
|----------------------|------------------|------------------|-^2----*|
|-----0------0-------0-|----0-------0---0-|-----0------------|-^0----*|
|----------------------|------------------|------------------|-^0----*|
|--3----3-6-----6--3---|-0----0-(0)---0---|--3----3-6-(6)----|-^0----*|
|
| Gtr IV                                                       Gtr III
| +E  Q   E +Q     Q     W                  +E  Q   E +H        W
|----------------------|------------------|------------------|-------*|
|----------------------|------------------|------------------|-------*|
|-(7)-5---8-(8)---10---|-7----------------|-(7)-5---8-(8)----|-------*|
|----------------------|------------------|------------------|-^0----*|
|----------------------|------------------|------------------|-^0----*|
|----------------------|------------------|------------------|-^0----*|


Duration Legend
---------------
W - whole; H - half; Q - quarter; E - 8th; S - 16th; T - 32nd; X - 64th; a - acciaccatura
+ - note tied to previous; . - note dotted; .. - note double dotted
Uncapitalized letters represent notes that are staccato (1/2 duration)
Irregular groupings are notated above the duration line
Duration letters will always appear directly above the note/fret number it represents the
duration for.  Duration letters with no fret number below them represent rests.  Multi-
bar rests are notated in the form Wxn, where n is the number of bars to rest for.  Low
melody durations appear below the staff

Tablature Legend
----------------
 h   - hammer-on
 p   - pull-off
 b   - bend
 pb  - pre-bend
 r   - bend release (if no number after the r, then release immediately)
 /\  - slide into or out of (from/to "nowhere")
 s   - legato slide
 S   - shift slide
  - natural harmonic
[n]  - artificial harmonic
n(n) - tapped harmonic
 ~   - vibrato
 tr  - trill
 T   - tap
 TP  - trem. picking
 PM  - palm muting
\n/  - tremolo bar dip; n = amount to dip
 \n  - tremolo bar down
 n/  - tremolo bar up
/n\  - tremolo bar inverted dip
 =   - hold bend; also acts as connecting device for hammers/pulls
 <>  - volume swell (louder/softer)
 x   - on rhythm slash represents muted slash
 o   - on rhythm slash represents single note slash

Misc Legend
-----------
 |  - bar
||  - double bar
||o - repeat start
o|| - repeat end
*|  - double bar (ending)
 :  - bar (freetime)
 $  - Segno
 &  - Coda
Tempo markers -  = BPM(8/16=s8/s16), where s8 = swing 8ths, s16 = swing 16ths
Comments