Godsmack - Serenity Chords & Tabs

 

Serenity Chords & Tabs

Godsmack Chords & Tabs

Version: 2 Type: Tab 0 ratings
1 star 2 stars 3 stars 4 stars 5 stars
comments

Serenity Tab

   
-------------------------------------------------------------------------------
			     Serenity - Godsmack
-------------------------------------------------------------------------------

Tabbed by:Tim Vlieger
Email:all_powerful_mercenary@ananzi.co.za

Tuning:dropped D(it may be tuned down a half step, im not sure)
i didn't tab the rhythm, so just listen to the song and you'll get the hang of it

intro and verse
   Dmin             Ddim5
e|---------------------------------------------------------------------------|
B|---------------------------------------------------------------------------|
G|---------------------------------------------------------------------------|
D|---0---0---0---0-----0-----0-----------------------------------------------|
A|---------------------------------------------------------------------------|
D|-0---0---0---3---3-6---6-3-------------------------------------------------|
Last time through
  Dmin              Ddim5
e|---------------------------------------------------------------------------|
B|---------------------------------------------------------------------------|
G|---------------------------------------------------------------------------|
D|---0---0---0---0-----------------------------------------------------------|
A|---------------------------------------------------------------------------|
D|-0---0---0---3---3-6-------------------------------------------------------|
[ Tab from: http://www.guitartabs.cc/tabs/g/godsmack/serenity_tab_ver_2.html ]
Chorus
   Dmin Dmin/F Dmin/G#
e|---------------------------------------------------------------------------|
B|----6-----6---6---6--------------------------------------------------------|
G|---7-7---7---7-------------------------------------------------------------|
D|--7---7--------------------------------------------------------------------|
A|-5------8-------8----------------------------------------------------------|
D|------------6--------------------------------------------------------------|

Bridge
  Dmin                 G#sus2  
e|---------------------------------------------------------------------------|
B|-----6---------6-----------------------------------------------------------|
G|---7---7----7----7---------3-----------3-----------------------------------|
D|----7---7----7-----7---6-----6-----6----6----------------------------------|
A|-5--------5--------------6-----6-----6----6--------------------------------|
D|---------------------6-----------6-----------------------------------------|

the chord that is played twice throughout the bridge is just an Fsus2 chord
e|---8------------------------------------------------------------------------|
B|---8------------------------------------------------------------------------|
G|---10-----------------------------------------------------------------------|
D|---10-----------------------------------------------------------------------|
A|---8------------------------------------------------------------------------|
D|----------------------------------------------------------------------------|
Comments