Godsmack - Serenity Chords & Tabs

 

Serenity Chords & Tabs

Godsmack Chords & Tabs

Version: 1 Type: Tab 0 ratings
1 star 2 stars 3 stars 4 stars 5 stars
comments

Serenity Tab

this is serenity....
tabed by rob
album-faceless
you will have to figure out the timing cause i dont feel like tabbing it out.

intro/verse
e-----------------------------------
b-----------------------------------
g--7-7-7-7-7-7----------------------
d--0-0-0-0-0-0----------------------
a-----------------------------------
d-0-0-0-3-7-7-----------------------
[ Tab from: http://www.guitartabs.cc/tabs/g/godsmack/serenity_tab.html ]
chorus  on the chorus i just put the tab, not the number of times.
e-----------------------------------
b-----------------------------------
g-----------------------------------
d-5--8--6---------------------------
a-5--8--6---------------------------
d-5--8--6---------------------------

thats it..simple song but never the less, very good

                    cheers
Comments