Godsmack - Running Blind Chords & Tabs

 

Running Blind Chords & Tabs

Godsmack Chords & Tabs

Version: 6 Type: Tab 0 ratings
1 star 2 stars 3 stars 4 stars 5 stars
comments

Running Blind Tab

   
8\3\4
Band: Godsmack
Title: Running Blind
Tabbed by: Justin Kivak (a.k.a. Skeeve)

  I tabbed it so it could be played by one person, but there's definitely
more than one guitar being played.  Anyway, if you've heard the song, use
it to get the timing.  It's a pretty easy song.  Okay, tune your guitar a
half step down from standard tuning and enjoy!!

Chords:  Ebm    Db(add9)   B    Ab5/Bb5    Gb
   eb|----0----|---0---|---0---|--0-0---|--3--|
   Bb|----0----|---3---|---1---|--0-0---|--3--|
   Gb|----0----|---2---|---0---|--2/4---|--0--|
   Db|----2----|---0---|---2---|--2/4---|--0--|
   Ab|----2----|---0---|---3---|--0-0---|--2--|
   Eb|----0----|---0---|---0---|--0-0---|--3--|

Intro- strum loosely
                      x2                        x6                   x8
eb|--0--0--0-0--0-0-0--|--0-----0----0-0--0-0-0--|--0--0--0-0--0-0-0--|
Bb|--0--0--3-3--1-1-1--|--0-0h3---0--3-3--1-1-1--|--0--0--3-3--1-1-1--|
Gb|*-0--0--2-2--0-0-0-*|*-0----------2-2--0-0-0-*|*-0--0--2-2--0-0-0-*|
Db|*-2--2--0-0--2-2-2-*|*-2----------0-0--2-2-2-*|*-2--2--0-0--2-2-2-*|
Ab|--2--2--0-0--3-3-3--|--2----------0-0--3-3-3--|--2--2--0-0--3-3-3--|
Eb|--0--0--0-0--0-0-0--|--0----------0-0--0-0-0--|--0--0--0-0--0-0-0--|

Chorus- let strings ring through
                         x3
eb|--0-0-0-0-0-0-0-0-0-0--|--3-3-3-3-3-3p0-0-0-0--|
Bb|--0-0-0-0-0-0-0-0-0-0--|--3-3-3-3-3-3p0-0-0-0--|
Gb|*-2-2-2-2-2-2/4-4-4-4-*|--0-0-0-0-0-0-0-0-0-0--|
Db|*-2-2-2-2-2-2/4-4-4-4-*|--0-0-0-0-0-0-0-0-0-0--|
Ab|--0-0-0-0-0-0-0-0-0-0--|--2-2-2-2-2-2-2-2-2-2--|
Eb|--0-0-0-0-0-0-0-0-0-0--|--3-3-3-3-3-3-3-3-3-3--|

Verse
                           x4                   x8
eb|--0-----0----0-0--0-0-0--|--0--0--0-0--0-0-0--|
Bb|--0-0h3---0--3-3--1-1-1--|--0--0--3-3--1-1-1--|
Gb|*-0----------2-2--0-0-0-*|*-0--0--2-2--0-0-0-*|
Db|*-2----------0-0--2-2-2-*|*-2--2--0-0--2-2-2-*|
Ab|--2----------0-0--3-3-3--|--2--2--0-0--3-3-3--|
Eb|--0----------0-0--0-0-0--|--0--0--0-0--0-0-0--|

Chorus
                         x3
eb|--0-0-0-0-0-0-0-0-0-0--|--3-3-3-3-3-3p0-0-0-0--|
Bb|--0-0-0-0-0-0-0-0-0-0--|--3-3-3-3-3-3p0-0-0-0--|
Gb|*-2-2-2-2-2-2/4-4-4-4-*|--0-0-0-0-0-0-0-0-0-0--|
Db|*-2-2-2-2-2-2/4-4-4-4-*|--0-0-0-0-0-0-0-0-0-0--|
Ab|--0-0-0-0-0-0-0-0-0-0--|--2-2-2-2-2-2-2-2-2-2--|
Eb|--0-0-0-0-0-0-0-0-0-0--|--3-3-3-3-3-3-3-3-3-3--|
[ Tab from: http://www.guitartabs.cc/tabs/g/godsmack/running_blind_tab_ver_6.html ]
Bridge
                           x4
eb|--0-----0----0-0--0-0-0--|--0--|
Bb|--0-0h3---0--3-3--1-1-1--|--0--|
Gb|*-0----------2-2--0-0-0-*|--0--|
Db|*-2----------0-0--2-2-2-*|--2--|
Ab|--2----------0-0--3-3-3--|--2--|
Eb|--0----------0-0--0-0-0--|--0--|

Solo

eb|-0---0-0-0---0-0---0-0-0-0-0---|-0-0-0---0-0---0-0-0-0-0--|
Bb|-3/5-5-5-5/7-7-7/8-8-7-5-3-3/5-|-5-5-5/7-7-7/8-8-7-5-3-3/5|
Gb|-------------------------------|--------------------------|
Db|-------------------------------|--------------------------|
Ab|-------------------------------|--------------------------|
Eb|-------------------------------|--------------------------|


eb|-0--0--0-0-0--0--0-0-0-0--|--0-0-0----0-0-0-0----|
Bb|-12-12\8-8/10-10\5-5/7-7--|--5-5-5/7--x-3-3-3/5--|
Gb|--------------------------|----------------------|
Db|--------------------------|----------------------|
Ab|--------------------------|----------------------|
Eb|--------------------------|----------------------|


eb|-0--0--0--0--0--0--0----0-0-0-0-|-0--0--0--0--0--0--0-----0--0-0-0-|
Bb|-10-10-10-10-10-10-10\9-9-7-5-5-|-10-10-10-10-10-10-10/12-10-9-7-7-|
Gb|--------------------------------|----------------------------------|
Db|--------------------------------|----------------------------------|
Ab|--------------------------------|----------------------------------|
Eb|--------------------------------|----------------------------------|


eb|-0--0--0--0--0--0--0----0-0-0-0-|
Bb|-10-10-10-10-10-10-10\9-9-7-5-5-|
Gb|--------------------------------|
Db|--------------------------------|
Ab|--------------------------------|
Eb|--------------------------------|

                                          Verse- strum loosely

eb|-0-0-0-0-0-0-0----0--0--0--0--0--0-----|-----0---0-0-0-0-0-|
Bb|-8-8-8-8-8-8-8/10-10-10-10-10-10-10/12-|-0h3---0-3-3-1-1-1-|
Gb|---------------------------------------|---------2-2-0-0-0-|
Db|---------------------------------------|---------0-0-2-2-2-|
Ab|---------------------------------------|---------0-0-3-3-3-|
Eb|---------------------------------------|---------0-0-0-0-0-|


                         x3                 x4
eb|--0-----0---0-0-0-0-0--|--0-0--0-0-0-0-0--|
Bb|--0-0h3---0-3-3-1-1-1--|--0-0--3-3-1-1-1--|
Gb|*-0---------2-2-0-0-0-*|*-0-0--2-2-0-0-0-*|
Db|*-2---------0-0-2-2-2-*|*-2-2--0-0-2-2-2-*|
Ab|--2---------0-0-3-3-3--|--2-2--0-0-3-3-3--|
Eb|--0---------0-0-0-0-0--|--0-0--0-0-0-0-0--|

Outro- strum hard and wild
                         x8
eb|--0-----0---0-0-0-0-0--|--0--||
Bb|--0-0h3---0-3-3-1-1-1--|--0--||
Gb|*-0---------2-2-0-0-0-*|--0--||
Db|*-2---------0-0-2-2-2-*|--2--||
Ab|--2---------0-0-3-3-3--|--2--||
Eb|--0---------0-0-0-0-0--|--0--||

Well, there it is; hope I did a good job.  Sorry I didn't post the lyrics, but
they're not hard to figure out. Rookies be patient, the solo might be difficult.
					Skeeve the Great
Comments