Godsmack - Running Blind Chords & Tabs

 

Running Blind Chords & Tabs

Godsmack Chords & Tabs

Version: 5 Type: Tab 0 ratings
1 star 2 stars 3 stars 4 stars 5 stars
comments

Running Blind Tab

   
Tabber: Jason Botello
Song: Running Blind
Artist: Godsmack
Album: The Other Side
Tuning: Standard
------------------------------------------------------------------

Intro:
 Em Em     D  D    C  C
|-0--0-----0--0----0--0---------------------------------------------------|
|-0--0-----3--3----3--3---------------------------------------------------|
|-0--0-----2--2----0--0---------------------------------------------------|
|-2--2-----0--0----2--2---------------------------------------------------|
|-2--2-----0--0----3--3---------------------------------------------------|
|-0--0-----0--0----0--0---------------------------------------------------|

Fill
|-------0-----------------------------------------------------------------|
|-0-h-3------0-------0----------------------------------------------------|
|----------2---2---0---0--------------------------------------------------|
|----------------2-------2------------------------------------------------|
|-------------------------------------------------------------------------|
|-------------------------------------------------------------------------|

|-------0-----------------------------------------------------------------|
|-0-h-3-----0-------------------------------------------------------------|
|---------2---2---0-------------------------------------------------------|
|---------------2---------------------------------------------------------|
|-------------------------------------------------------------------------|
|-------------------------------------------------------------------------|
[ Tab from: http://www.guitartabs.cc/tabs/g/godsmack/running_blind_tab_ver_5.html ]
Verse
 Em D   C
|-0-0---0-----------------------------------------------------------------|
|-0-3---3-----------------------------------------------------------------|
|-0-2---0-----------------------------------------------------------------|
|-2-0---2-----------------------------------------------------------------|
|-2-0---3-----------------------------------------------------------------|
|-0-0---0-----------------------------------------------------------------|

Chorus
|-------------------------------------------------------------------------|
|-------------------------------------------------------------------------|
|-5----5-5-5--5--7-7-7---7-7---3--3-3-3---3-------------------------------|
|-6----6-6-6--6--8-8-8---8-8---4--4-4-4---4--2-2-2-2-2--------------------|
|-6----6-6-6--6--8-8-8---8-8---4--4-4-4---4--2-2-2-2-2--------------------|
|-4----4-4-4--4--6-6-6---6-6---2--2-2-2---2--0-0-0-0-0--------------------|

Solo
|----------------------------------------------------------------0--------|
|--333/555/777/88---------12-12-88-10-10-77-88---------------------0------|
|----------------------------------------------99-11-11-77-7h9------------|
|-----------------77h9----------------------------------------------------|
|-------------------------------------------------------------------------|
|-------------------------------------------------------------------------|

|-------------------------------------------------------------------------|
|10-10-10-10-10-10p9-99p77---10-10-10-10h12-12-10-9-7-10-10-10-10-10-10p9-|
|--------------------------9----------------------------------------------|
|-------------------------------------------------------------------------|
|-------------------------------------------------------------------------|
|-------------------------------------------------------------------------|

|-------------------------------------------------------------------------|
|99p77---8-8-8-8-8-8/10-10-10-10/12-12-12---------------------------------|
|------9------------------------------------------------------------------|
|-------------------------------------------------------------------------|
|-------------------------------------------------------------------------|
|-------------------------------------------------------------------------|

Fin.

Hoped you liked it! This is a fairly easy song, it just takes practice, like anything else.
Comments