Godsmack - Running Blind Chords & Tabs

 

Running Blind Chords & Tabs

Godsmack Chords & Tabs

Version: 4 Type: Tab 0 ratings
1 star 2 stars 3 stars 4 stars 5 stars
comments

Running Blind Tab

   
Here is Running Blind, a great song off of "The Other Side"

standard turning

*listen to the song for strumming pattern

intro
--0------0------0--------------------------------------------
--0------3------3-------------------------------------------
--0------2------0--------------------------------------------
--2------0------2--------------------------------------------
--2------0------3--------------------------------------------
--0------0------0--------------------------------------------
  Em     D      C


Fill 1

--------------------------------------------------------------
-------------------------------0--------------0---------------
------4slide7 ho 9 7--------2-----2-----0--------0------------
-------------------------------------2--------------2---------
--------------------------------------------------------------
--------------------------------------------------------------

Fill 2

--------------------------------------------------------------
--------------------------------0------------------------------
------4slide7-ho-9--7--------2-----2-----0---------------------
--------------------------------------2------------------------
--------------------------------------------------------------
--------------------------------------------------------------

verse 1

Em, D, C----repeat for four measures

chorus 1

A bar chord on E string, then B bar chord on E string *listen for changes

then G bar chord on E string, F bar chord on E string

pre-verse two-repeat fills 1 and 2 twice each

Verse 2---see verse 1

chorus 2--see chorus 1

*after chorus 2, play chords from verses, you'll hear it.
[ Tab from: http://www.guitartabs.cc/tabs/g/godsmack/running_blind_tab_ver_4.html ]
solo:
---------------------------------------------------------------
----33slide55slide77slide8-------------------------------------
----------------------------77ho9------------------------------
---------------------------------------------------------------
---------------------------------------------------------------
---------------------------------------------------------------

repeat above twice
-------------------------------------------------0-------------
--1212--88--1010--77--88---------------------------0-----------
----------------------------99--11-11--77--7ho9----------------
---------------------------------------------------------------
---------------------------------------------------------------
---------------------------------------------------------------

---------------------------------------------------------------
--10-10-10-10-10-10-10po9-99po7-7------10-10-10-10-10-10-10ho12
-----------------------------------9---------------------------
---------------------------------------------------------------
---------------------------------------------------------------
---------------------------------------------------------------

---------------------------------------------------------------
--12-10-9-7------10-10-10-10-10-10-10po9-99po7-7---------------
--------------------------------------------------9------------
---------------------------------------------------------------
---------------------------------------------------------------
---------------------------------------------------------------

---------------------------------------------------------------
----8-8-8-8-8-8-8slide10-10-10-10-10slide12-12-12--------------
---------------------------------------------------------------
---------------------------------------------------------------
---------------------------------------------------------------
---------------------------------------------------------------

repeat fills 1 and 2 with chords underneath

end with verse chords played for 12 measures

enjoy!
Comments