Godsmack - Running Blind Chords & Tabs

 

Running Blind Chords & Tabs

Godsmack Chords & Tabs

Version: 3 Type: Tab 0 ratings
1 star 2 stars 3 stars 4 stars 5 stars
comments

Running Blind Tab

Godsmack
Running Blind
Album: The Other Side

ok i put the lyrics and the chords together for the first verse and the chorus
after that i just wrote the lyrics cause i figure u dont need me to write the same
thing over and over again.  and the fill in w/ the second guitar is right here at the
beginning, if you've ever listened to the song you know where to put it.

the song is originally tuned down a half step
but since i dont have my guitar tuned like that all the time i tried arranging it to standard tuning

in the verse
the first chord is a Em, then a D and then a C (thats when he is tuned down a half step)
so the first chord might sound a little off, but the other two are fine

fill in                                   drop on 4th time
e----------------------------------------|-----|-------------
b----------------------------------------|-----|-------------
g--3s6--8--6--x2----3s6-8-6-----1--3p1---|-3p1-|--x4---------
d--------------------------------------1-|----1|-------------
a----------------------------------------|-----|-------------
e----------------------------------------|-----|-------------

Can't find the answers 
I've been crawling on my knees 
Looking for anything 
To keep me from drowning 
Promises have been turned to lies 
Can't even be honest inside 
Now I'm running backward 
Watching my life wave me goodbye 


e-------------------------------------------------------------
b-------------------------------------------------------------
g----------------6-6------------------------------------------
d--8---8-8-8---8-6-6---4-4---4-4------------------------------
a--6---6-6-6---6-4-4---4-4---4-4------------------------------
e--6---6-6-6---6-------2-2---2-2------------------------------

Running blind 
I'm running blind

e-------------------------------------------------------------
b-------------------------------------------------------------
g--5---5-5-5---5-5---7-7-7---7-7------------------------------
d--6---6-6-6---6-6---8-8-8---8-8------------------------------
a--6---6-6-6---6-6---8-8-8---8-8------------------------------
e--4---4-4-4---4-4---6-6-6---6-6------------------------------



Somebody help me see I'm running blind 

e-------------------------------------------------------------
b-------------------------------------------------------------
g--3---3-3-3---3-3---1-1-1---1-1------------------------------
d--4---4-4-4---4-4---2-2-2---2-2------------------------------
a--4---4-4-4---4-4---2-2-2---2-2------------------------------
e--2---2-2-2---2-2---0-0-0---0-0------------------------------

[ Tab from: http://www.guitartabs.cc/tabs/g/godsmack/running_blind_tab_ver_3.html ]
Searching for nothing 
Wondering if I'll change 
I'm trying everything 
But everything still stays the same 
I thought if I showed you I could fly 
Wouldn't need anyone by my side 
Now I'm running backward 
With broken wings I know I'll die 


Running blind 
I'm running blind 

Somebody help me see I'm running blind 

Running blind 
Running blind 
Running blind 




solo:
e-------------------------------------------------------------
b-------------------------------------------------------------
g--6-6/8-8-8/10-10-10/11-11-11\10-10-10\8-8-8\6-6-6/8-8-------
d-------------------------------------------------------------
a-------------------------------------------------------------
e-------------------------------------------------------------

e-------------------------------------------------------------
b-------------------------------------------------------------
g----8-8/10-10-10/11-11-11\10-10-10\8-8-6/8-------------------
d-------------------------------------------------------------
a-------------------------------------------------------------
e-------------------------------------------------------------

e-------------------------------------------------------------
b--11-11-7-7-9-9-6-6/7----------------------------------------
g----------------------8-8------------------------------------
d-------------------------------------------------------------
a-------------------------------------------------------------
e-------------------------------------------------------------

e-------------------------------------------------------------
b-------------------------------------------------------------
g--8-8/10-10-10/11----6--6/8--6-6-6---------------------------
d-------------------------------------------------------------
a-------------------------------------------------------------
e-------------------------------------------------------------

e-------------------------------------------------------------
b--9--9-9-9--9-9-9\8-8-6-----9--9-9-9--9-9-9/11-9-8-6---------
g------------------------8------------------------------------
d-------------------------------------------------------------
a-------------------------------------------------------------
e-------------------------------------------------------------

e-------------------------------------------------------------
b--9-9-9--9-9-9\8-8-6------7--7-7-7--7-7-7/9-9-9-9-9/11-11----
g---------------------8---------------------------------------
d-------------------------------------------------------------
a-------------------------------------------------------------
e-------------------------------------------------------------

I can't find the answers 
I've been crawling on my knees 
Looking for anything 
To keep me from drowning 
I'm running blind

Running blind 
Running blind 
Running blind 
Running blind 
Running blind 
Running blind 
Running blind 
Running blind



well thats it, this is my 3rd tab so please vote for this tab so know how good im doing
Comments