Godsmack - Running Blind Chords & Tabs

 

Running Blind Chords & Tabs

Godsmack Chords & Tabs

Version: 1 Type: Tab 0 ratings
1 star 2 stars 3 stars 4 stars 5 stars
comments

Running Blind Tab

This is my first guitar tab so cut me a break.  Thanks to my friend from another site for help with the solo.
Godsmack is a great band and I hope to get more tabs up for them


Lead Guitar                                   drop on 4th time
e----------------------------------------|-----|-------------
b----------------------------------------|-----|-------------
g--3s6--8--6--x2----3s6-8-6-----1--3p1---|-3p1-|--x4---------
d--------------------------------------1-|----1|-------------
a----------------------------------------|-----|-------------
e----------------------------------------|-----|-------------

Back-up Guitar
e---x--xx---xx---x--xx----------
b---8--88---66---4--44----------
g---8--88---66---4--44----------
d---8--88---66---4--44----------
a---6--66---44---2--22----------
e---x--xx---xx---x--xx----------

Can't find the answers 
I've been crawling on my knees 
Looking for anything 
To keep me from drowning 
Promises have been turned to lies 
Can't even be honest inside 
Now I'm running backward 
Watching my life wave me goodbye 


e-------------------------------------------------------------
b-------------------------------------------------------------
g----------------6-6------------------------------------------
d--8---8-8-8---8-6-6---4-4---4-4------------------------------
a--6---6-6-6---6-4-4---4-4---4-4------------------------------
e--6---6-6-6---6-------2-2---2-2------------------------------

Running blind 
I'm running blind

e-------------------------------------------------------------
b-------------------------------------------------------------
g--5---5-5-5---5-5---7-7-7---7-7------------------------------
d--6---6-6-6---6-6---8-8-8---8-8------------------------------
a--6---6-6-6---6-6---8-8-8---8-8------------------------------
e--4---4-4-4---4-4---6-6-6---6-6------------------------------



Somebody help me see I'm running blind 

e-------------------------------------------------------------
b-------------------------------------------------------------
g--3---3-3-3---3-3---1-1-1---1-1------------------------------
d--4---4-4-4---4-4---2-2-2---2-2------------------------------
a--4---4-4-4---4-4---2-2-2---2-2------------------------------
e--2---2-2-2---2-2---0-0-0---0-0------------------------------




[ Tab from: http://www.guitartabs.cc/tabs/g/godsmack/running_blind_tab.html ]
solo:
e-------------------------------------------------------------
b-------------------------------------------------------------
g--6-6/8-8-8/10-10-10/11-11-1110-10-108-8-86-6-6/8-8-------
d-------------------------------------------------------------
a-------------------------------------------------------------
e-------------------------------------------------------------

e-------------------------------------------------------------
b-------------------------------------------------------------
g----8-8/10-10-10/11-11-1110-10-108-8-6/8-------------------
d-------------------------------------------------------------
a-------------------------------------------------------------
e-------------------------------------------------------------

e-------------------------------------------------------------
b--11-11-7-7-9-9-6-6/7----------------------------------------
g----------------------8-8------------------------------------
d-------------------------------------------------------------
a-------------------------------------------------------------
e-------------------------------------------------------------

e-------------------------------------------------------------
b-------------------------------------------------------------
g--8-8/10-10-10/11----6--6/8--6-6-6---------------------------
d-------------------------------------------------------------
a-------------------------------------------------------------
e-------------------------------------------------------------

e-------------------------------------------------------------
b--9--9-9-9--9-9-98-8-6-----9--9-9-9--9-9-9/11-9-8-6---------
g------------------------8------------------------------------
d-------------------------------------------------------------
a-------------------------------------------------------------
e-------------------------------------------------------------

e-------------------------------------------------------------
b--9-9-9--9-9-98-8-6------7--7-7-7--7-7-7/9-9-9-9-9/11-11----
g---------------------8---------------------------------------
d-------------------------------------------------------------
a-------------------------------------------------------------
e-------------------------------------------------------------

I can't find the answers 
I've been crawling on my knees 
Looking for anything 
To keep me from drowning 
I'm running blind

Running blind 
Running blind 
Running blind 
Running blind 
Running blind 
Running blind 
Running blind 
Running blind


Comments