Godsmack - Running Blind Chords & Tabs

 

Running Blind Chords & Tabs

Godsmack Chords & Tabs

Version: 1 Type: Chords 2 ratings
1 star 2 stars 3 stars 4 stars 5 stars
comments

Running Blind Chords

   
Song:Running Blind
Artist:Godsmack
Album:The Other Side
Tabbed by:linkinparkdelux

Tuning:Eb-Ab-Db-Gb-Bb-Eb

Intro: (you figure out the strummimg)
   Em  Dsus  C    Em       Dsus    C
eb------0----0--|--------0---0----0---0---|
Bb------3----1-*|*---0-3---3-3---3-----1-*|
Gb--0---2----0--|--0---------2--2-------0-|
Db--2---0----2--|--2---------0------------|
Ab--2--------3--|--2----------------3----*|
Eb--0--------0--|--0----------------------|

Do that until the verse

Verse/Chorus:("Can't find the answers...")("I'm runnin' blind....")
  Em   Dsus    C
eb-------0-----0
Bb-------3-----1
Gb-0-----2-----0
Db-2-----0-----2
Ab-2-----------3
Eb-0-----------0


Pre-Chorus:("Goodbye, I'm runnin' blind....")
   A      B         A    C
eb------------|    |-----0|  
Bb-2------4---|    |2----1|
Gb-2------4---|    |2----0|
Db-2------4---|    |2----2|
Ab-0------2---| x3 |0----3|
Eb------------|    |-----0|

[ Tab from: http://www.guitartabs.cc/tabs/g/godsmack/running_blind_crd.html ]
Solo:
eb---------------------|--------------------|---------------------|
Bb--------------------*|-12-12-8-8-10-10-7-7|-8-8-----7-7---------|
Gb-79-9-11-12-11-9-7--|--------------------|-----9-9-----7-7-9-9-|
Db---------------------|--------------------|---------------------|
Ab--------------------*|--------------------|---------------------|
Eb---------------------|--------------------|---------------------|

eb---------------------|-----------------------|-------------------
Bb-10-10-10-10-10-9-7--|-9-9h10-10-10-12-10-9-7|-9-9h10-10-10-10-10
Gb--------------------9|-----------------------|-------------------
Db---------------------|-----------------------|-------------------
Ab---------------------|-----------------------|-------------------
Eb---------------------|-----------------------|-------------------

eb------|-------------------------|
Bb-9-7--|-8-8-8-8-8-10-10-10-10-10|
Gb-----9|-------------------------|
Db------|-------------------------|
Ab------|-------------------------|
Eb------|-------------------------|


Song Order:
Intro
Verse
Pre-Chorus
Verse
Pre-Chorus
Chorus
Solo
Chorus x2

End on an Em


There you guys go. Questions, comments, or concerns email me at
Ficarra92@hotmail.com, or IM me at lpgtr23 or prjktrvlutionist.
Comments