Godsmack - Releasing The Demons Chords & Tabs

 

Releasing The Demons Chords & Tabs

Godsmack Chords & Tabs

Version: 2 Type: Bass Tab

Releasing The Demons Bass Tab

Drop C tuning:

intro: X4
F-----------------------------------------|------------------------------|
C-----------------------------------------|------------------------------|
G-----------------------------------------|------------------------------|
C---0-X-X--0-10/12-12-12-12-13-13-13-13---|-6-6-6--13-13-13-13-13-13-13--|

verses: X4
F--------------------------------------------------------------|-----------|
C--------------------------------------------------------------|end of 4th-|
G----------------3-5--X2--------------------------------7-6-4--|-----------|
C--0-X-X-X-0-0-0-----------6-X-X-X-6-6-6-6-5--6-X-X-X-6--------|-13-12-10--|

pre-chorus:
F-----------------------------------------------------------------------|
C-----------------------------------------------------------------------|
G-----------------------------------------------------------------------|
C--13-13-13-13-13-13-12--12-12--6-6-6--3-3-3-3-3------------------------|

F-----------------------------------------------------------------------|
C-----------------------------------------------------------------------|
G-----------------------------------------------------------------------|
C--13-13-13-13-13-13-12--12-12--3-3-3--6-6-6-6-6------------------------|

F-----------------------------------------------------------------------|
C-----------------------------------------------------------------------|
G-----------------------------------------------------------------------|
C--0-0-0-0-0-0--0--0-0-0-0-0--3--3-3-3--6--6-6-6-6-6--------------------|
[ Tab from: http://www.guitartabs.cc/tabs/g/godsmack/releasing_the_demons_btab_ver_2.html ]
F-----------------------------------------|
C-----------------------------------------|
G-----------------------------------------|
C--0-0-0-0-0-0--0--0-0-0-0-0--3~---13///--|

chorus: X4
F---------------------------------------|
C---------------------------------------|
G---------------------------------------|
C--0-X-X-0--10/12-12-12-12-13-13-13-13--|

verse: X4

pre-chorus

bridge:
the first 4 bars have only guitars...at the end of the 4th bar come in with
F------------------|
C------------------|
G------------------|
C--10/13-13-13-13--|
then
F------------------------------|------------------------------|
C------------------------------|------------------------------|
G------------------------------|------------------------------|
C--0--X--0-0--X--0-0-0-0--(X3)-|--0-0-0-0---0-0-0-0---0-0-0-0-|

F------------------------------|----------------------------------|  play
C------------------------------|----------------------------------|  this
G------------------------------|----------------------------------|  2 times
C--0--X--0-0--X--0-0-0-0--(X3)-|--10-10-10---13-13-13-13-13-13-13-|

F-----------------------------------------|---------------------------------|
C-----------------------------------------|---------------------------------|
G-----------------------------------------|---------------------------------|
C--0-0-0-X--0-0-0-X--10/13-13-13-13--(X3)-|-10-10-10---13-13-13-13-13-13-13-|
this is played 2 times also, then

pre-chorus: (the end of the pre-chorus is a little different)
F-------------------------------------------|
C-------------------------------------------|
G-------------------------------------------|
C--0-0-0-0-0-0--0--0-0-0-0-0--3~----6---3---|

chorus: X7

on the 7th, end with
F-----------------------|
C-----------------------|
G-----------------------|
C--3-3-0--3-3-0---------|