Godsmack - Re-align Chords & Tabs

 

Re-align Chords & Tabs

Godsmack Chords & Tabs

Version: 5 Type: Tab 2 ratings
1 star 2 stars 3 stars 4 stars 5 stars
comments

Re-align Tab

   
Mxtabs [http://www.mxtabs.net]
Godsmack - Realign
Album - Faceless
Tuning - Drop C (CGCFAD)

r = rest
~ = let ring
^ = bend
h = hammer-on
p = pull-off
/ = slide up
. = Palm Mute
~~~~ = VIBRATO

Intro x2:
D-----------------------------------------------------
A---3--3---3-3-3-3-3-3--------------------------------
F---2--2---2-2-2-2-2-2---5--5--5-5/10-10--10---10-10--
C---0--0---0-0-0-0-0-0---3--3--3-3/8--8----8----8--8--
G---0--0---0-0-0-0-0-0---3--3--3-3/8--8----8----8--8--
C---0--0---0-0-0-0-0-0---3--3--3-3/8--8----8----8--8--

D---------------------------------------------
A---3--3---3-3-3-3-3-3------------------------
F---2--2---2-2-2-2-2-2---10-10--5-5-5-5-3-3---
C---0--0---0-0-0-0-0-0----8--8--3-3-3-3-1-1---
G---0--0---0-0-0-0-0-0----8--8--3-3-3-3-1-1---
C---0--0---0-0-0-0-0-0----8--8--3-3-3-3-1-1---

Verse x4:
D----------------------------------------
A--3--3----------------------------------
F--2--2-----5--5--5-5/10-10--10---10-10--
C--0--0--r--3--3--3-3/8--8----8----8--8--
G--0--0-----3--3--3-3/8--8----8----8--8--
C--0--0-----3--3--3-3/8--8----8----8--8--


Chorus:
D---------------------------------------------------------------
A---------------------------------------------------------------
F---14-14-14-14-14-14-14-14-14-14-12-12-12-12-12-12-12-12-12-12-
C---12-12-12-12-12-12-12-12-12-12-10-10-10-10-10-10-10-10-10-10-
G---12-12-12-12-12-12-12-12-12-12-10-10-10-10-10-10-10-10-10-10-
C---12-12-12-12-12-12-12-12-12-12-10-10-10-10-10-10-10-10-10-10-


D---------------------------------------------------------------
A---------------------------------------------------------------
F---10-10-10-10-10-10-10-10-10-10-12-12-12-12-12-12-12-12-12-12-
C----8--8--8--8--8--8--8--8--8--8-10-10-10-10-10-10-10-10-10-10-
G----8--8--8--8--8--8--8--8--8--8-10-10-10-10-10-10-10-10-10-10-
C----8--8--8--8--8--8--8--8--8--8-10-10-10-10-10-10-10-10-10-10-

D---------------------------------------------------------------
A---------------------------------------------------------------
F---14-14-14-14-14-14-14-14-14-14-12-12-12-12-12-12-12-12-12-12-
C---12-12-12-12-12-12-12-12-12-12-10-10-10-10-10-10-10-10-10-10-
G---12-12-12-12-12-12-12-12-12-12-10-10-10-10-10-10-10-10-10-10-
C---12-12-12-12-12-12-12-12-12-12-10-10-10-10-10-10-10-10-10-10-

D---------------------------------------------------
A---------------------------------------------------
F---10-10-10-10-10-10-10-10-10-10-9-9-9-9-9---------
C----8--8--8--8--8--8--8--8--8--8-7-7-7-7-7--0h3-3--
G----8--8--8--8--8--8--8--8--8--8-7-7-7-7-7--0h3-3--
C----8--8--8--8--8--8--8--8--8--8-7-7-7-7-7--0h3-3--


Play Intro Once

Play Verse x4

2nd Chorus x2:
same but with different ending and a second guitar playing this on the second time:
D------------------------------------------------------------------------
A------------------------------------------------------------------------
F--7-7-7-7-7-7-7-7-7-7-9-9-9-9-9-9-9-9-9-9-10-10-10-10-10-10-10-10-10-10-
C--x-x-x-x-x-x-x-x-x-x-x-x-x-x-x-x-x-x-x-x--x--x--x--x--x--x--x--x--x--x-
G--5-5-5-5-5-5-5-5-5-5-7-7-7-7-7-7-7-7-7-7--8--8--8--8--8--8--8--8--8--8-
C------------------------------------------------------------------------

D--------------------------------------------------------------------------
A--------------------------------------------------------------------------
F--12-12-12-12-12-12-12-12-12-12-14-14-14-14-14-14-14-14-14-14-17-17-17-17-
C---x--x--x--x--x--x--x--x--x--x--x--x--x--x--x--x--x--x--x--x--x--x--x--x-
G--10-10-10-10-10-10-10-10-10-10-12-12-12-12-12-12-12-12-12-12-15-15-15-15-
C--------------------------------------------------------------------------

D---------------------12-12-12-12-12-8-8-8-8-8----
A----------------------x--x--x--x--x-x-x-x-x-x----
F--17-17-17-17-17-17---9--9--9--9--9-5-5-5-5-5----
C---x--x--x--x--x--x------------------------------
G--15-15-15-15-15-15------------------------------
C-------------------------------------------------

1st guitar\'s 2nd chorus end:
D----------------------------
A----------------------------
F--12-12-12------------------
C--10-10-10--2/3--3-3---2--0-
G--10-10-10--2/3--3-3---2--0-
C--10-10-10--2/3--3-3---2--0-

[ Tab from: http://www.guitartabs.cc/tabs/g/godsmack/re_align_tab_ver_5.html ]
Entrance to Interlude x2:
D---------------------------
A---------------------------
F---------------------------
C---0--2/3-3-3--2--------0--
G---0--2/3-3-3--2--------0--
C---0--2/3-3-3--2--0-3-3-0--
PM                 . . .


Interlude:
D----------------------------------------------------------------------
A------10----------10--------------------10--10--10-----10--10-----10--
F--12--------12-----------12-----12-12-12--12--12--12-12--12--12-12----
C----------------------------------------------------------------------
G----------------------------------------------------------------------
C----------------------------------------------------------------------


Solo:
D---------------------------------------------------------10-------------
A---13--13--13--13--13--13-13--13-13-------------------------13-10----10-
F---12^-12^-12^-12^-12^----12^----12^-12p10--12~~~~--12^-----------13----
C------------------------------------------------------------------------
G------------------------------------------------------------------------
C------------------------------------------------------------------------

D------------------------------------------------------------------------------
A----12------------------------------------------------------------------------
F--10---10--10--12p10---10----12p10----10--------------------------------------
C---------12--12------12---12-------12------12~~~--------12-10---10--10-12P10--
G-----------------------------------------12-------12P10-------12--12----------
C------------------------------------------------------------------------------

D---------------------------------------------------------------------
A---------------------------------------------------------------------
F-------------10---------------------------------12-12-10^---10~~~~---
C----10-12P10----12~~~~---12P10---10---12P10--10----------------------
G--12---------------------------12---12-----12------------------------
C---------------------------------------------------------------------

D---------------------------------------------------------------
A--13^------------------10--------------------------------------
F------12^-10---10-12^-----12^-12^-12^-12^-12^p10-12~~~~--------
C------------12-------------------------------------------------
G---------------------------------------------------------------
C---------------------------------------------------------------

D--------10-------------------------------------------------------------------
A--13^------12p10-13^~~~----10h12p10-13~~~~---10H13P10------------------------
F------------------------------------------------------12~~~--10H12P10--------
C----------------------------------------------------------------------12~~~--
G-----------------------------------------------------------------------------
C-----------------------------------------------------------------------------

D--------------------------------------------------------------------
A--------------------------------------------------------------------
F--------10--10-12^-----12^~~~---12p10---10-12p10---10-12^---10~~~--
C---10h12--12--------------------------12---------12-----------------
G--------------------------------------------------------------------
C--------------------------------------------------------------------

D--12-15^-13^-------------------10----------------------------------
A-------------15-13-15~~~---13^--13-10-13-10---10------------------
F---------------------------------------------13---13^---10~~~~-----
C-------------------------------------------------------------------
G-------------------------------------------------------------------
C-------------------------------------------------------------------

D------------------------------------------------------------------------------
A------10-13--10-13--10-13---10-13---13-10--------------------------------13--
F--12^------12-----12-----12^-----12^------------------------------10--10-12^-
C---------------------------------------------------10--10-12-10-12--12--------
G-------------------------------------------12-10-12--12-----------------------
C------------------------------------------------------------------------------


Play intro once

Play chorus x2

Finish with the Entrance to the Interlude and the Interlude until fading end


 
 


Comments