Godsmack - Re-align Chords & Tabs

 

Re-align Chords & Tabs

Godsmack Chords & Tabs

Version: 4 Type: Tab 0 ratings
1 star 2 stars 3 stars 4 stars 5 stars
comments

Re-align Tab

   
Song: Re-Align
Artist: Godsmack

Guitar 1: Sully Erna (CGCFAD)
Guitar 2: Tony Rombola (CGCFAD)


Note: The first intro is from Changes DVD

First Intro (with Wah)
|------------------------------|
|------------------------------|
|------------------------------|
|------------------------------|
|----------------------------7-|
|-1/15-12-13-12-10-12-13-12--7-|

|----------------------------|
|----------------------------|
|----------------------------|
|----------------------------|
|-------------------------10-|
|-1/15-12-13-12-10-12-13--10-|

|------------------------------|
|------------------------------|
|------------------------------|
|------------------------------|
|----------------------------0-|
|-1/15-12-13-12-10-12-13-12--0-|


Intro (Both Guitars)
|------------------------|
|-3-3-33-3---------------|
|-2-2-22-2---------------|
|-0-0-00-0--3-3-33/888-8-|
|-0-0-00-0--3-3-33/888-8-|
|-0-0-00-0--3-3-33/888-8-|

|----------------------|
|-3-3-33-3-------------|
|-2-2-22-2-------------|
|-0-0-00-0--8-8-88-3-1-|
|-0-0-00-0--8-8-88-3-1-|
|-0-0-00-0--8-8-88-3-1-|

|------------------------|
|-3-3-33-3---------------|
|-2-2-22-2---------------|
|-0-0-00-0--3-3-33/888-8-|
|-0-0-00-0--3-3-33/888-8-|
|-0-0-00-0--3-3-33/888-8-|

|--------------------|
|-3-3-33-3-----------|
|-2-2-22-2-----------|
|-0-0-00-0--8-8-88-1-|
|-0-0-00-0--8-8-88-1-|
|-0-0-00-0--8-8-88-1-|


Verse (Guitar 2)
|-----------------------|
|---3x------------------|
|---2x------------------|
|-0-0x--0/3-3-33/8-8-88-|
|-0-0x--0/3-3-33/8-8-88-|
|-0-0x--0/3-3-33/8-8-88-|


Chorus (Both Guitars)
|---------------------------------------------------------|
|---------------------------------------------------------|
|-7-777-77-7-7\5-555-55-5-5\3-333-33-3-3/5-555-55-5-5-----|
|-7-777-77-7-7\5-555-55-5-5\3-333-33-3-3/5-555-55-5-5-----|
|-5-555-55-5-5\3-333-33-3-3\1-111-11-1-1/3-333-33-3-3-023-|
|-----------------------------------------------------023-|

|---------------------------------------------------------|
|---------------------------------------------------------|
|-7-777-77-7-7\5-555-55-5-5\3-3-3-3-3-3-3-3/2-2-2-2-2-----|
|-7-777-77-7-7\5-555-55-5-5\3-3-3-3-3-3-3-3/2-2-2-2-2-----|
|-5-555-55-5-5\3-333-33-3-3\1-1-1-1-1-1-1-1/0-0-0-0-0-023-|
|-----------------------------------------------------023-|

Pre-Verse (Both Guitars)
|------------------------|
|-3-3-33-3---------------|
|-2-2-22-2---------------|
|-0-0-00-0--3-3-33/888-8-|
|-0-0-00-0--3-3-33/888-8-|
|-0-0-00-0--3-3-33/888-8-|

|----------------------|
|-3-3-33-3-------------|
|-2-2-22-2-------------|
|-0-0-00-0--8-8-88-3-1-|
|-0-0-00-0--8-8-88-3-1-|
|-0-0-00-0--8-8-88-3-1-|


Verse (Guitar 2)


Second Chorus (Both Guitars)
|---------------------------------------------------------|
|---------------------------------------------------------|
|-7-777-77-7-7\5-555-55-5-5\3-333-33-3-3/5-555-55-5-5-----|
|-7-777-77-7-7\5-555-55-5-5\3-333-33-3-3/5-555-55-5-5-----|
|-5-555-55-5-5\3-333-33-3-3\1-111-11-1-1/3-333-33-3-3-023-|
|-----------------------------------------------------023-|

|---------------------------------------------------------------|
|---------------------------------------------------------------|
|-7-777-77-7-7\5-555-55-5-5\3-333-33-3-3/5-555-55-5-5-----------|
|-7-777-77-7-7\5-555-55-5-5\3-333-33-3-3/5-555-55-5-5-----------|
|-5-555-55-5-5\3-333-33-3-3\1-111-11-1-1/3-333-33-3-3-0233-2-00-|
|-----------------------------------------------------0233-2-00-|

|---------------------------------------------------------|
|---------------------------------------------------------|
|-7-777-77-7-7\5-555-55-5-5\3-333-33-3-3/5-555-55-5-5-----|
|-7-777-77-7-7\5-555-55-5-5\3-333-33-3-3/5-555-55-5-5-----|
|-5-555-55-5-5\3-333-33-3-3\1-111-11-1-1/3-333-33-3-3-023-|
|-----------------------------------------------------023-|

|---------------------------------------------------------------|
|---------------------------------------------------------------|
|-7-777-77-7-7\5-555-55-5-5\3-333-33-3-3/5-555-55-5-5-----------|
|-7-777-77-7-7\5-555-55-5-5\3-333-33-3-3/5-555-55-5-5-----------|
|-5-555-55-5-5\3-333-33-3-3\1-111-11-1-1/3-333-33-3-3-0233-2-00-|
|-----------------------------------------------------0233-2-00-|

|-------------------------------------------------|
|-------------------------------------------------|
|-------------------------------------------------|
|-------------------------------------------------|
|-0-233-2-xxx-0-0--0-233-0-xxx-0--0-233-2-xxx-0-0-|
|-0-233-2-xxx-0-0--0-233-0-xxx-0--0-233-2-xxx-0-0-|


Interlude (Guitar 2)
|-----------------------------------|
|----10---------10------10----10----|
|-12----12---10------12----12----12-|
|-----------------------------------|
|-----------------------------------|
|-----------------------------------|

Solo (From Jared Nash Tab) (Guitar 2)
|----b--------b--v-----b-------------------------------|
|--12^(14)--12^(14)--12^(14)----p----v-----------------|
|--12^(14)--12^(14)--12^(14)--12^10-12-----------------|
|---------------~~~~----------------~~~~---------------|
|------------------------------------------------------|
|------------------------------------------------------|
[ Tab from: http://www.guitartabs.cc/tabs/g/godsmack/re_align_tab_ver_4.html ]
|--------10---p------------------------------p--------------p-------b-------|
|---b-------13^10---10---10-12-10----10----12^10----10----12^10---10^(11)---|
|-12^(14)---------13--13-10-12-10----10----12^10----10----12^10---10^(11)--v|
|---------------------------------12----12-------12----12------12---------12|
|-------------------------------------------------------------------------~~|
|---------------------------------------------------------------------------|

|------------------------------------------------------|
|-------------------------------------h----------------|
|----p-----------------p------------10^11-v------------|
|--12^10----10----10-12^10----10-12------12------------|
|--------12----12----------12------------~~~~----------|
|------------------------------------------------------|

|------------------------------------------------------|
|-------------------------------------b--------v-------|
|----p-----------------p------------10^(12)---10-------|
|--12^10----10----10-12^10----10-12-----------~~~~-----|
|--------12----12----------12--------------------------|
|------------------------------------------------------|
               
|----b-------------------------------------------------|
|--13^(15)--10---------------b----r-------p--p----v----|
|--------------12-10----10-12^(14)^( )--13^12^10-12----|
|--------------------12--------------------------~~~~--|
|------------------------------------------------------|
|------------------------------------------------------|

|----b-------10-----------v--------------v----------------------------------|
|--13^(15)-----13-10-13^(15)---10-13-10-13---10-13-10--v--------------------|
|------------------------~~~~-----------~~~-----------12---13-12-10--v------|
|-----------------------------------------------------~~~~----------12------|
|-------------------------------------------------------------------~~~~----|
|---------------------------------------------------------------------------|

|---------------------------------------------------------------------------|
|-------------------b-----r----10----b----r----b--v-------------------------|
|--------10----10-12^(14)^(12)-----12^(14)^(13)^(14)------------------------|
|--10-12----12-----------------------------------~~~~-----------------------|
|---------------------------------------------------------------------------|
|---------------------------------------------------------------------------|

|---------------p--------------------------------------|
|---p---------12^10---------b--.---v-------------------|
|-12^10----10-12^10----10-12^(14)-10-------------------|
|-------12----------12------------~~~~-----------------|
|------------------------------------------------------|
|------------------------------------------------------|

      b       b
|--15^(17)-13^(14)--------v------b-----10-----h--p--------------------------|
|------------------15-13-15-\---13^(15)---13-10^13^10----10--v--v-----------|
|------------------------~~~--------------------------13----12-10-----------|
|-----------------------------------------------------------~~-~~~----------|
|---------------------------------------------------------------------------|
|---------------------------------------------------------------------------|

|------------------------------------------------------|
|----------13------pb----13----------13----------------|
|--12^(14)----12-12^(14)-----12^(14)---(14)------------|
|------------------------------------------------------|
|------------------------------------------------------|
|------------------------------------------------------|

|------------------------------------------------------|
|----------------------------------------b-------------|
|--------------------------------------12^(14)--r(12)\-|
|----------------------------10----10--12^(14)--r(12)\-|
|----------10----10-12-10-12----12---------------------|
|-12-10-12----12---------------------------------------|
|------------------------------------------------------|

(Guitar 1)
|---------------------------------------------------------|
|---------------------------------------------------------|
|-7-777-77-7-7\5-555-55-5-5\3-333-33-3-3/5-555-55-5-5-----|
|-7-777-77-7-7\5-555-55-5-5\3-333-33-3-3/5-555-55-5-5-----|
|-5-555-55-5-5\3-333-33-3-3\1-111-11-1-1/3-333-33-3-3-023-|
|-----------------------------------------------------023-|

|---------------------------------------------------------------|
|---------------------------------------------------------------|
|-7-777-77-7-7\5-555-55-5-5\3-333-33-3-3/5-555-55-5-5-----------|
|-7-777-77-7-7\5-555-55-5-5\3-333-33-3-3/5-555-55-5-5-----------|
|-5-555-55-5-5\3-333-33-3-3\1-111-11-1-1/3-333-33-3-3-0233-2-00-|
|-----------------------------------------------------0233-2-00-|

|---------------------------------------------------------|
|---------------------------------------------------------|
|-7-777-77-7-7\5-555-55-5-5\3-333-33-3-3/5-555-55-5-5-----|
|-7-777-77-7-7\5-555-55-5-5\3-333-33-3-3/5-555-55-5-5-----|
|-5-555-55-5-5\3-333-33-3-3\1-111-11-1-1/3-333-33-3-3-023-|
|-----------------------------------------------------023-|

|------------------------------------------------------|
|------------------------------------------------------|
|-7-777-77-7-7\5-555-55-5-5\3-3-3-3-3-3-3-3/2-2-2-2-2--|
|-7-777-77-7-7\5-555-55-5-5\3-3-3-3-3-3-3-3/2-2-2-2-2--|
|-5-555-55-5-5\3-333-33-3-3\1-1-1-1-1-1-1-1/0-0-0-0-0--|
|------------------------------------------------------|


Intro


Second Chorus


Interlude

-----------------------------------------------------------------------------
Rate Me!
Comments