Godsmack - Re-align Chords & Tabs

 

Re-align Chords & Tabs

Godsmack Chords & Tabs

Version: 3 Type: Tab 0 ratings
1 star 2 stars 3 stars 4 stars 5 stars
comments

Re-align Tab

Band- Godsmack
Song- Re-Align
Album- Faceless
Tuning- Drop D

This is every part to the song....SOLO INCLUDED!!!!

Intro

---------------------------------------------|-----------|
---3-3--3---------------3-3-3----------------|-----------|
---2-2--2---5-5-5/10----2-2-2-----10---5--3--|-----------|
---0-0--0---3-3-3/-8----0-0-0------8---3--1--|---8--1----|
---0-0--0---3-3-3/-8----0-0-0------8---3--1--|---8--1----|
---0-0--0---3-3-3/-8----0-0-0------8---3--1--|---8--1----|



Verse

--------------------|
--------------------|
--------------------| repeat as needed
--------------------|
---0-0--0h3-3-3/8---|
---0-0--0h3-3-3/8---|




Chorus

-----------------------------|--------------------------------|
-----------------------------|--------------------------------|
----14---12---10---12--------|-14---12---10---9---------------|	Back to Intro
----12---10----8---10---0h3--|-12---10----8---7----0h3--------|
----12---10----8---10---0h3--|-12---10----8---7----0h3--------|
----12---10----8---10---0h3--|-12---10----8---7----0h3--------|

Rhy. Fill 1			Elec. Gtr. 2 (w/ dist.)

---------------------|	--------------------------------------------------|
---------------------|	--------------------------------------------------|
---12----------------|	---7---9--10--12---14--17---------------10-10-10--|
---10---2/3-3--2--0--|	----------------------------12-12-12-12-----------|
---10---2/3-3--2--0--|	---5---7---8--10---12--15-------------------------|
---10---2/3-3--2--0--|	--------------------------------------------------|

w/Rhy. Fill 1						

---------------------12--12--8---8----|------------------------------------|
--------------------------------------|------------------------------------|
---10-/-9----9-------9----9--5---5----|------------------------------------|
--------------------------------------|---0-------2h3--3--2-------------0--|
--------------------------------------|---0-------2h3--3--2-------------0--|
--------------------------------------|---0-------2h3--3--2---0---3--3--0--|

Interlude			          

--------------------------------------|------------------------------|
--------10--------10--------------10--|------------------------------|
--12---------12-------12----10--------|------------------------------|
--------------------------------------|------------------------------|
--------------------------------------|---5--5--5--5--5--5--5--5--5--|
--------------------------------------|---5--5--5--5--5--5--5--5--5--|


Guitar Solo:

------------------------------------------------------10---------------------|
---13b---13b----13-13b--13-13-----------------------------13--10----10---12--|
---12b---12b-------12b-----12-----12p10----12----12b-------------13----10----|
-----------------------------------------------------------------------------|
-----------------------------------------------------------------------------|
-----------------------------------------------------------------------------|

-----------------------------------------------------------------------|
--------------------12----------10--------12---------------------------|
---10------10-------12p10-------10--------12p10------10----------------|
-------12------12----------12-------12-----------12------------12~~~~~~|
---------------------------------------------------------12------------|
-----------------------------------------------------------------------|
[ Tab from: http://www.guitartabs.cc/tabs/g/godsmack/re_align_tab_ver_3.html ]
------------------------------------------------------------------------------|
------------------------------------------------------------------------------|
--------------------------------------------------10--------------------------|
--------12--10-----10-----10--12p10-----10--12p10-----12~~~~~12p10-----10-----|
--12h10--------12-----12------------12-----------------------------12-----12--|
------------------------------------------------------------------------------|

------------------------------------------------------------------------------|
--------------------------------------------13b-------------------------------|
---------------------12--12--10b----10~~~~~~-------12b/r12---10------10--12b--|
---10--12p10-----10----------------------------------------------12-----------|
-------------12---------------------------------------------------------------|
------------------------------------------------------------------------------|

----------------------------------------------10------------------------------|
---10------------------------------------13b------13p10--13b~~~~10-13-10-13~~~|
-------12b-12--12--12--12--12p10--12~~~~--------------------------------------|
------------------------------------------------------------------------------|
------------------------------------------------------------------------------|
------------------------------------------------------------------------------|

------------------------------------------------------------------------|
---10--13--10-----------------------------------------------------------|
--------------12~~~10--12--10-------------10----10--12b---12b----12~~~~~|
------------------------------12~~~~10h12----12-------------------------|
------------------------------------------------------------------------|
------------------------------------------------------------------------|

---------------------------------------------------0----15b---13b-----------------|
---------------------------------------------------0--------------15-13-15~~~15---|
---12---12p10------10--12p10-----10-12b---10~~10----------------------------------|
---------------12------------12---------------------------------------------------|
----------------------------------------------------------------------------------|
----------------------------------------------------------------------------------|


--------10-----------------------------------------------------------------|
---13b-----13--10--13--10------10-------------------10--13-----10--13------|
---------------------------13------12b----10~~~12b----------12--------12---|
---------------------------------------------------------------------------|
---------------------------------------------------------------------------|
---------------------------------------------------------------------------|

----------------------------------------------------------------------------------||
---10--13-------10--13-----13--10----------------------------------------13b--13--||
-----------12b---------12b--------------------------------------10----10-12b--12--||
----------------------------------------------10----10-12-10-12----12-------------||
-----------------------------------12--10--12----12-------------------------------||
----------------------------------------------------------------------------------||

After that, it of course goes back to the intro and then the interlude/outro

ENJOY!!!!!
Comments