Godsmack - Re-align Chords & Tabs

 

Re-align Chords & Tabs

Godsmack Chords & Tabs

Version: 2 Type: Tab 0 ratings
1 star 2 stars 3 stars 4 stars 5 stars
comments

Re-align Tab

   
-------------------------------------------------------------------------------
			     Re-Align - Godsmack
-------------------------------------------------------------------------------
Tabbed by: Jared Nash
Email: mygodsmack@yandex.ru

Note: My version gives the basic ideas on how to play this solo.
      Feel free to mail me.

Tuning: low to high - C G C F A D

Legend:

|  \  - slide down
|  b  - bend
|  h  - hammer-on
|  p  - pull-off
|  pb - pre-bend
|  r  - release bend
|  v  - vibrato
|  .  - mute note
| |xn| - repeat n times
|
===============================================================================

Solo :
               1
     |x3|      *       |x3|

D|----b--------b--v-----b-------------------------------|
A|--12^(14)--12^(14)--12^(14)----p----v-----------------|
F|--12^(14)--12^(14)--12^(14)--12^10-12-----------------|
C|---------------~~~~----------------~~~~---------------|
G|------------------------------------------------------|
C|------------------------------------------------------|

continued:

D|--------10---p------------------------------p--------------p-------b--------|
A|---b-------13^10---10---10-12-10----10----12^10----10----12^10---10^(11)----|
F|-12^(14)---------13--13-10-12-10----10----12^10----10----12^10---10^(11)--v-|
C|---------------------------------12----12-------12----12------12---------12-|
G|-------------------------------------------------------------------------~~~|
C|----------------------------------------------------------------------------|

continued:

D|------------------------------------------------------|
A|-------------------------------------h----------------|
F|----p-----------------p------------10^11-v------------|
C|--12^10----10----10-12^10----10-12------12------------|
G|--------12----12----------12------------~~~~----------|
C|------------------------------------------------------|

continued:
                                     slowly...

D|------------------------------------------------------|
A|-------------------------------------b--------v-------|
F|----p-----------------p------------10^(12)---10-------|
C|--12^10----10----10-12^10----10-12-----------~~~~-----|
G|--------12----12----------12--------------------------|
C|------------------------------------------------------|

continued:                    2
                              *
D|----b-------------------------------------------------|
A|--13^(15)--10---------------b----r-------p--p----v----|
F|--------------12-10----10-12^(14)^( )--13^12^10-12----|
C|--------------------12--------------------------~~~~--|
G|------------------------------------------------------|
C|------------------------------------------------------|

continued:

    hold...

D|----b-------10-----------v--------------v-----------------------------------|
A|--13^(15)-----13-10-13^(15)---10-13-10-13---10-13-10--v---------------------|
F|------------------------~~~~-----------~~~-----------12---13-12-10--v-------|
C|-----------------------------------------------------~~~~----------12-------|
G|-------------------------------------------------------------------~~~~-----|
C|----------------------------------------------------------------------------|

continued:
[ Tab from: http://www.guitartabs.cc/tabs/g/godsmack/re_align_tab_ver_2.html ]
D|----------------------------------------------------------------------------|
A|-------------------b-----r----10----b----r----b--v--------------------------|
F|--------10----10-12^(14)^(12)-----12^(14)^(13)^(14)-------------------------|
C|--10-12----12-----------------------------------~~~~------------------------|
G|----------------------------------------------------------------------------|
C|----------------------------------------------------------------------------|

continued:                   3
                             *
D|---------------p--------------------------------------|
A|---p---------12^10---------b--.---v-------------------|
F|-12^10----10-12^10----10-12^(14)-10-------------------|
C|-------12----------12------------~~~~-----------------|
G|------------------------------------------------------|
C|------------------------------------------------------|


continued:

      b       b
D|--15^(17)-13^(14)--------v------b-----10-----h--p---------------------------|
A|------------------15-13-15-\---13^(15)---13-10^13^10----10--v--v------------|
F|------------------------~~~--------------------------13----12-10------------|
C|-----------------------------------------------------------~~-~~~-----------|
G|----------------------------------------------------------------------------|
C|----------------------------------------------------------------------------|


continued:

      4            |x3|               5
      *                               *
D|------------------------------------------------------|
A|----------13------pb----13----------13----------------|
F|--12^(14)----12-12^(14)-----12^(14)---(14)------------|
C|------------------------------------------------------|
G|------------------------------------------------------|
C|------------------------------------------------------|

continued:
                                         hold.....

C|------------------------------------------------------|
D|----------------------------------------b-------------|
A|--------------------------------------12^(14)--r(12)\-|
F|----------------------------10----10--12^(14)--r(12)\-|
C|----------10----10-12-10-12----12---------------------|
G|-12-10-12----12---------------------------------------|
C|------------------------------------------------------|


===============================================================================

-------------------------------------------------------------------------------
 1
 *
   Bend the strings (F,A) slowly (slowly in relation to previous 3 bends),
   vibrate these 2 strings.
-------------------------------------------------------------------------------
 2
 *
   Pluck the F string & immediately reach the highest pitch of a full bend.
While holding the bend in its highest positi on pluck 2 times.
Gradually begin to release; while releasing, pluck the string 3 times.
    Listen to the CD for the degree of release.
-------------------------------------------------------------------------------
 3
 *
    Mute the F string right after the pitch of the bend is the highest.

-------------------------------------------------------------------------------
 4
 *
    Pluck the F string & bend it.
    Having reached the tone of the note at the 14th fret, pluck again.

-------------------------------------------------------------------------------
 5
 *
    Pluck the F string & bend it; hold the bend.
    Pluck the A string (13th fret).
    Again pluck the F string.
Comments